Guitar Tabs for Love Story Taylor Swift

(/) Slide Up  (\) Slide Down  (h) Hammer On  (p) Pull Off  (b) Bend (r) Release (v) Vibrato (x) Muted

Tabs for Song : 

Song lyrics here
E|--------5-----------------------5--------------10----------0-----------0-----0--------------
B|--------------3--------------3-----------------------3--------------------------3--0--3-----
G|-----2--------------------------------------------------------2-----------------------------
D|--4--------0-----0--0--0--0--------2--2-----2-----2-----------------4--------------------4--
A|-----------------------------------------0--------------0--------2--------2-----------------
E|--------------------------------------------------------------------------------------------

E|--0--------------------5-----------5--------------------0-----------------0--19-------------
B|-----0-----------3-----------------------2--3--3--2--3-----3--2--3--2--3--------3--3--2--3--
G|-----------0--2-----2-----2--2--2-----2-----------------------------------------------------
D|--------2-----------------------------------------------------------------------------------
A|--------------------------------------------------------------------------------------------
E|--------------------------------------------------------------------------------------------

E|--------0--------------------------
B|--0--0-----3-----0--3--3--2-----0--
G|-----------------------------2-----
D|--------------4--------------------
A|-----------------------------------
E|-----------------------------------

E|--
B|--
G|--
D|--
A|--
E|--

Song lyrics here
E|--
B|--
G|--
D|--
A|--
E|--

Paste any tab in acousterr's tab maker and we'll play it !!!
Now supports capo and sound effects for vibrato/pull-off/hammer/bends/mutes etc !!! Checkout help section
tabs and chords, guitar tabs, music transcription, music technology, deep learning, music information retrieval, transcribe into tabs & chords, chordify, music renditions, songsterr, reverbnation, tabulature, bollywood chords, ultimate guitar, yousician, guitar lessons, acoustic guitar, electric guitar, guitar tuner, 911 tabs