Guitar Tabs for Love Someone

(/) Slide Up  (\) Slide Down  (h) Hammer On  (p) Pull Off  (b) Bend (r) Release (v) Vibrato (x) Muted

Tabs for Song : 
BPM : 200

Song lyrics here 
E|-----0--0--------0--0--------------0--0-----0--------------1--1--------0--0-----3--0--0--------
B|--3--------------------3--1--3-----------------3--1--3--------------3--------1-----------------
G|--------------------------------2-----------------------2--------------------------------------
D|-----------------------------------------------------------------------------------------------
A|-----------------------------------------------------------------------------------------------
E|-----------------------------------------------------------------------------------------------

E|--0--3--5--3-----------------0--1--0-----------1--0-----------0--1--0-----------1--0-----------
B|---------------3p1--------------------3--------------1-----------------3--------------1--------
G|--------------------------2--------------0--0-----------------------------0--0-----------------
D|-----------------------------------------------------------------------------------------------
A|-----------------------------------------------------------------------------------------------
E|-----------------------------------------------------------------------------------------------

Song lyrics here 
E|--0--1--0-----------1--0------1h3-----------0--3--5--0-----------------3-----------------------
B|-----------3--------------1--------------1--------------3--1--3--1--3------3p1-----------------
G|--------------0--0-----------------------------------------------------------------------------
D|-----------------------------------------------------------------------------------------------
A|-----------------------------------------------------------------------------------------------
E|-----------------------------------------------------------------------------------------------

E|--0--3--5--0--------0--0--------------0--3--5--0-----3--3--3--0--------------------------------
B|--------------3--1---------3p1--------------------3--------------3--1--0--1--------------------
G|-----------------------------------------------------------------------------------------------
D|-----------------------------------------------------------------------------------------------
A|-----------------------------------------------------------------------------------------------
E|-----------------------------------------------------------------------------------------------

E|--0-----------------0--------0--0--------------0-----------------0-----------------------------
B|-----3--1--------------3--1---------3p1-----------3--1--------------3--1--1--1-----------------
G|-----------2--0--2--------------------------------------2--0--2--------------------------------
D|-----------------------------------------------------------------------------------------------
A|-----------------------------------------------------------------------------------------------
E|-----------------------------------------------------------------------------------------------

E|--1-----0-----------0--0--------0--0--------------0--0-----0--------------1--1-----------------
B|-----------------3--------------------3--1--3-----------------3--1--3--------------------------
G|-----------------------------------------------2-----------------------2-----------------------
D|-----------------------------------------------------------------------------------------------
A|-----------------------------------------------------------------------------------------------
E|-----------------------------------------------------------------------------------------------

E|-----0--0-----3--0--0-----0--3--5--3--------------0--1--0-----------1--0--------0--1--0--------
B|--3--------1---------------------------3p1-----------------3--------------1--------------3-----
G|-----------------------------------------------2--------------0--0--------------------------0--
D|-----------------------------------------------------------------------------------------------
A|-----------------------------------------------------------------------------------------------
E|-----------------------------------------------------------------------------------------------

E|-----1--0--------0--1--0-----------1--0------1p3--------0--3--5--0-----------------3-----------
B|-----------1--------------3--------------1-----------1--------------3--1--3--1--3------3p1-----
G|--0--------------------------0--0--------------------------------------------------------------
D|-----------------------------------------------------------------------------------------------
A|-----------------------------------------------------------------------------------------------
E|-----------------------------------------------------------------------------------------------

E|--0--3--5--0--------0--0-----------0--3--5--0-----3--3--3--0-----------------0-----------------
B|--------------3--1---------3p1-----------------3--------------3--1--0--1--------3--1-----------
G|--------------------------------------------------------------------------------------2--0--2--
D|-----------------------------------------------------------------------------------------------
A|-----------------------------------------------------------------------------------------------
E|-----------------------------------------------------------------------------------------------

E|--0-----------------1--0-----------0--0-----0--0-----------0--0--------0--0--------------------------
B|-----3--1--1--1-----------3-----3-----------------3--1--3--------1--3--------1--------1--1--1--1--3--
G|--------------------------------------------------------------------------------2--------------------
D|-----------------------------------------------------------------------------------------------------
A|-----------------------------------------------------------------------------------------------------
E|-----------------------------------------------------------------------------------------------------

E|--0------------------0--3--5--0--------0--------------------0--3--5--0-----------------3-----
B|------------1p0--------------------3--1------1p0-----------3--------------3--1--3--1--3-----1--
G|-----2--------------------------------------------2--------------------------------------------
D|-----------------------------------------------------------------------------------------------
A|-----------------------------------------------------------------------------------------------
E|-----------------------------------------------------------------------------------------------

E|--0--3--5--0--------0--------------0--3--5--8--7--10-10-10-8--7--8--7--8-----0-----------------
B|--------------3--1------3p1-----------------------------------------------------3--1--------1--
G|--------------------------------------------------------------------------------------2--0-----
D|-----------------------------------------------------------------------------------------------
A|-----------------------------------------------------------------------------------------------
E|-----------------------------------------------------------------------------------------------

E|--0--0-----------0-----------------0--------3--0-----------0-----------------0-----------------
B|--------3--1--------3--1--------1-----3--1---------3p1--------3--1--------1-----3--1--1--1-----
G|--------------------------2--0--------------------------------------2--0-----------------------
D|-----------------------------------------------------------------------------------------------
A|-----------------------------------------------------------------------------------------------
E|-----------------------------------------------------------------------------------------------

Use manual mode to free up cursor. Paste any tab in acousterr tab maker and we'll play it !!!
tabs and chords, guitar tabs, music transcription, music technology, deep learning, music information retrieval, transcribe into tabs & chords, chordify, music renditions, songsterr, reverbnation, tabulature, bollywood chords, ultimate guitar, yousician, guitar lessons, acoustic guitar, electric guitar, guitar tuner, 911 tabs