Guitar Tabs for Love Of My Life - Queen (live Killers)

(/) Slide Up  (\) Slide Down  (h) Hammer On  (p) Pull Off  (b) Bend (r) Release (v) Vibrato (x) Muted

Tabs for Song : 
BPM : 200


E|-----10-10-10-10-10-10-10----8--8--8--8--7--7--7--7-----5--5--5--5--5--5--5--
B|-----10-10-10-10-10-10-10----8--8--8--8--8--8--8--8-----7--7--7--7--7--7--7--
G|-----------------------------------------------------------------------------
D|--0--------------------------------------------------0-----------------------
A|-----------------------------------------------------------------------------
E|-----------------------------------------------------------------------------

E|-----7--7--7--7--7--7--7-----5--5--5--5--5--5--5-----
B|-----8--8--8--8--8--8--8-----6--6--6--6--6--6--6-----
G|-----------------------------------------------------
D|--0-----------------------0-----------------------12-
A|-----------------------------------------------------
E|-----------------------------------------------------
    D                    Bm                E7
E|--------------2-----------------2--------0-----0-----0-----0--
B|-----3--2--3-----------3--2--3--------------0-----------3-----
G|-----------------2--------------------------------1-----------
D|--0--------------------------------4--------------------------
A|-----------------------2--------------------------------------
E|-----------------------------------------0--------------------
    A                       D (verse)               Bm                   G              F#m
E|-----------------------------------2--------------2--------2--------------------------------0-----
B|--2-----3-----5-----2-----3--2--3--------3--------3--2--3--------3--------3--5--3--------3-----3--
G|--2-----0-----------2-----------------2-----------4--------------------4--------------2-----------
D|--2-----4-----5-----2-----0-----------------------------------4-----------------------------------
A|--0--0-----0-----0--------------------------4-----2-----------------------------------------------
E|-----------------------------------------------------------------------3--------------2-----------

                            love of my Life,  you've hurt me             you've broken my heart
    E                       A                                               Bm
E|-----------------------------------0--------------------5-----4-----2--------------2--------------
B|--0-----------------------2-----------------------------2-----2-----2-----3--2--3--------------3--
G|--1-----2-----4-----7--------1--2--------2--------------------------------4--------------4--------
D|--2-----4-----6-----9-----------------2--------------4-----4-----4-----4--4-----------4-----4-----
A|--2-----------------------0-----------------------------------------------2-----------------------
E|--0--0-----0-----0--------------------------4-----2-----------------------------------------------

and now you leave me     love of my                             bring    
                                  life, you                        it back
                                     can't see                           

    E                    A                 D                          Bm F#m   G           D
E|--------------------------------2--0-----------------2--------------2--2-----------3--3--------
B|-----------------------2--0-----2--2-----------3-----------3--------3--2-----------3--3--3--3--
G|--1-----2------4/1-----2-----2--2--2--------2-----2-----------------4--2-----------4--4--2--2--
D|--2-----4------6/2-----2--------5--5-----0--------------0-----------4--4--------5--------0--0--
A|--2--------------2-----0--------0--0--------------------------4-----2--4-----------------------
E|-----0-----0-----0-----------------------------------------------------2-----3-----------------
    G  D  Bm Em          A           D
E|--3--2--2--0--------------------------------2--------10-9--7--9--5--------------------------0-----
B|--3--3--3--0--------3--2--------3--------3-----------12-10-8--10-7-----------3--5--3-----3-----3--
G|--0--2--4--0-----0-----2-----2--------2-----------------------------------4-----------2-----------
D|--0--0--4--2--2--------2--2-----------------------0-----------------7-----------------------------
A|--2-----2--2-----------0-----------0--------------------------------------------------------------
E|--3--------0--------------------------------------------------------------------------------------
    E                       A                          F#m                        Bm
E|--0--------------------------------0-----------------------4-----4-----4--2--------------2--------------
B|--0-----------------------2--------------------------------2-----2-----2--2-----3--2--3--------------3--
G|--1-----2-----4-----7--------1--2--------2-----------------2-----2-----2--2-----4--------------4--------
D|--2-----4-----6-----9-----------------2-----------------4-----4-----4-----------4-----------4-----4-----
A|--2-----------------------0-----------------0-----------------------------------2-----------------------
E|--0--0-----0-----0-----------------------------4-----2--------------------------------------------------
    E              A                 D                 CROWD SING  
E|-----------------0--------3--0--------------2-----2--------------
B|--------------------0-----2--2-----------3-----3--3--------------
G|--1--2--4--7-----------2--2--0--------2-----------2--------------
D|--2--4--6--9-----------------------0--------------0--------------
A|--2--------------0--------0--0-----------------------------------
E|--0--------------------------------------------------------------
    Em       A           D                       Bm F#m
E|--------------------0--------------0-----2-----2--2-----
B|--------3--2-----2--------3--------------------3--2-----
G|-----0--------2--------2--------2-----2-----2--4--2-----
D|-----------------------------------------------4--4-----
A|-----------0-----------------------------------2--4-----
E|--0-----------------------------------------------2-----
    G                                F#7                              F#m
E|-----------------2-----3-----5-----0--------2-----------2-----------2--2-----2--2--------2--5--2--
B|-----------3-----3-----5-----7-----2-----------3-----3-----3--------2-----2--2-----2-----4--4--4--
G|-----------4-----------------------3-----4--------4-----------4-----2--------2-----------2--5--4--
D|--5-----5-----------0-----0-----0-----------------------------------4-----------------------------
A|-----5-----------------------------------2--------------------------4-----------------------------
E|--3--------------------------------2--------------------------------2-----------------------------
    Em
E|-----0-----2-----0--------------------------0--0-----------------2-----2-----2-----2-----2-----2-----
B|--------0-----------3--------2-----3-----5-----2-----------3-----------------------------------------
G|-----------------------0-----2--------------0-----------2-----2-----2-----2-----2-----2-----2-----2--
D|--------------2-----------------2--4-----5-----------0-----------------------------------------------
A|-----------------------------0--------0--------------------------------------------------------------
E|--0--------------------------------------------------------------------------------------------------
                                                                A   
E|--2-----2-----0-----2--------0-----2-----3-----2-----0--------0--------------------0-----------
B|-----------------------------------------------------------3-----2--------2-----------2--------
G|-----2-----2-----2-----2--------2-----2-----2-----2-----2--------------2--------2--------2-----
D|--0-----------------0--------------0-----2-----0--------------------2--------------------------
A|--------------4--------------4-----------------------4-----2-----0-----------------------------
E|-----------------------------------------------------------------------------------------------
    Am7         G                                AH                            G           F#m
E|--0--------2--3--------3-----------------------------10----9-----7--9--5-----------------------0-----
B|--1-----1-----3-----------------3--------------12----12----10----8--10-7--------3--5--3-----3-----3--
G|--0-----------4--4--------5--5-----5--4--12----12----------------------------4-----------2-----------
D|--2--2--------5-----5--------------------------12-------0-----0-----------7--------------------------
A|--0-----------5--------------------------------------------------------------------------------------
E|--------------3--------------------------------------------------------------3-----------2-----------
    E              A                       Bm F#m   G           D        G  D  Bm Em
E|--0--------------------------------0-----2--2--------------3--2--------3--2--2--0--
B|--0--------------2-----3-----5-----8-----3--2--------------3-----3-----3--3--3--0--
G|--1--2-----4--7--2-----4-----6-----9-----4--2-----4-----4--4--------2--4--2--4--0--
D|--2--4-----6--9--2-----------------------4--4-----5-----------0--------5--0--4--2--
A|--2--------------0--0-----0-----0--------2--4--------5-----------------5-----2--2--
E|--0-----0-----------------------------------2-----3--------------------3--------0--
          A                    D                 Bm    F#m   Em
E|--0--------------0-----------------5-----5-----2-----2-----0-----0-----3-----5-----
B|-----3--2--------------3--------7-----7--7-----3-----2-----0--------3--3--3-----3--
G|--------2-----2--------------7-----------7-----4-----2-----0-----------3-----------
D|-----------2--------0--------------------------4-----4-----2--2--------------------
A|--------0--------------------------------------2-----4-----2-----------------------
E|-----------------------------------------------------2-----0-----------3-----------
    D
E|-----------5--2-----------5--	
B|--------3--7--3--------7-----
G|-----2-----7--2-----7--------
D|--0--------------0-----------
A|-----------------------------
E|-----------------------------
tabs and chords, guitar tabs, music transcription, music technology, deep learning, music information retrieval, transcribe into tabs & chords, chordify, music renditions, songsterr, reverbnation, tabulature, bollywood chords, ultimate guitar, yousician, guitar lessons, acoustic guitar, electric guitar, guitar tuner, 911 tabs