Guitar Tabs for Love Of My Life

(/) Slide Up  (\) Slide Down  (h) Hammer On  (p) Pull Off  (b) Bend (r) Release (v) Vibrato (x) Muted

Tabs for Song : 
BPM : 100

Song lyrics here 
E|-----------0--------------------0-----------------------------------
B|--1--0--1--------------1--0--1-----------3--3--3--1-----0--1--3--0--
G|--------------------------------------------------------------------
D|--------------------------------------------------------------------
A|--------------------------------------------------------------------
E|--------------------------------------------------------------------

E|-----------0-----------------0-----------------------------
B|--1--0--1-----------1--0--1--------1--3--1--------------1--
G|--------------------------------2-----------0--2--0--2-----
D|-----------------------------------------------------------
A|-----------------------------------------------------------
E|-----------------------------------------------------------

E|-----------3-----------------------1--0--1--5--------------3--3--1--
B|--1--0--1--------0--0-----------------------------------------------
G|-----------------------2--------2-----------------2--0--------------
D|--------------------------------------------------------------------
A|--------------------------------------------------------------------
E|--------------------------------------------------------------------

E|--0--------5--3--5--5-----1--0--1--1-----0-----0--1--0--------------------
B|-----3--1-----------------------------3--------------------3--3--1--------
G|--------------------------------------------------------------------2--0--
D|--------------------------------------------------------------------------
A|--------------------------------------------------------------------------
E|--------------------------------------------------------------------------

E|--------1--5--3-----------------1--1--------10----8-----6--5-----1--3--1-----1--
B|-----1-----------------3--1--3--------------------------------3-----------1-----
G|--------------------------------------------------------------------------------
D|--3-----------------------------------------------------------------------------
A|--------------------------------------------------------------------------------
E|--------------------------------------------------------------------------------

E|--3--1-----------1-----------3--------------------------1--0--1--5--
B|--------0--1--3-----1--0--1-----------0--0--------------------------
G|--------------------------------------------2--------2--------------
D|--------------------------------------------------------------------
A|--------------------------------------------------------------------
E|--------------------------------------------------------------------

E|--------3--3--1--0--------5--3--5--5--------1--0--1-----1-----0--
B|--2--0--------------3--1-----------------------------------3-----
G|-----------------------------------------------------------------
D|-----------------------------------------------------------------
A|-----------------------------------------------------------------
E|-----------------------------------------------------------------

E|--0--1--0-----------------------1--5--3--------------1--1--
B|-----------3--3--1-----------1-----------3--0--3-----------
G|--------------------2--0-----------------------------------
D|--------------------------3--------------------------------
A|-----------------------------------------------------------
E|-----------------------------------------------------------

E|--1--1--1--1--1--1-----0--0--5--0-----------------0-----------
B|-----------------------------------1--------1--3--------------
G|--------------------------------------2--3--------------1--1--
D|-----------------------------------------------------3--------
A|--------------------------------------------------------------
E|--------------------------------------------------------------

E|--1--1--1--1--5-----0--0--1--0--------0--------------------
B|--------------------------------3--0--------3--0--4--3--1--
G|-----------------------------------------------------------
D|-----------------------------------------------------------
A|-----------------------------------------------------------
E|-----------------------------------------------------------

E|-----3-----3-----3--------3-----5-----6--------5--
B|--------------------------------------------------
G|--3-----------------------------------------------
D|--------------------------------------------------
A|--------------------------------------------------
E|--------------------------------------------------



Use manual mode to free up cursor. Paste any tab in acousterr tab maker and we'll play it !!!
tabs and chords, guitar tabs, music transcription, music technology, deep learning, music information retrieval, transcribe into tabs & chords, chordify, music renditions, songsterr, reverbnation, tabulature, bollywood chords, ultimate guitar, yousician, guitar lessons, acoustic guitar, electric guitar, guitar tuner, 911 tabs