Guitar Tabs for Love Of My Life

(/) Slide Up  (\) Slide Down  (h) Hammer On  (p) Pull Off  (b) Bend (r) Release (v) Vibrato (x) Muted



Tabs for Song : 
BPM : 200

Love of My Life by QUEEN

INTRO
E|--0-----1-----0--1--1-----6-----5-----3-----1--3--0--------------------------0-----
B|-----1-----1-----------1-----3-----3-----3--------------------1--------------1-----
G|--0-----2-----0-----2-----------------------------------0-----------0--------0-----
D|--------------------------5-----3-----2-----0--------2-----2-----2-----2-----2-----
A|--------------------------------------------------3--------------------------3-----
E|-----------------------------------------------------------------------------------



E|--3--1--6--1--5--6--6--1--
B|--------------------------
G|--------------------------
D|--1-----------------------
A|--------5-----6-----5-----
E|--------------------------

CHORUS x2
E|--10----8-----6--6--8--5--------1--3--1-----1--3--1--3-----0-----2-----3--------
B|-----------------------------3-----------1-----------0-----1-----3-----0--------
G|-----------------------------------------0-----------0-----0-----2-----0--------
D|--8-----7-----5--------3-----0-----------------------0-----2-----0-----0--------
A|-----------------------------------------0-----------2-----3-----------2--------
E|-----------------------------------------------------3-----------------3--------


E|--0--------3--------0--------------1--0--1--5--------------3-----3-----1-----0--------5-----3-----5--5-----
B|--1--0--1--------0--0--------------3-----------------------------------0-----1--3--1-----------------------
G|--0-----------------2--2--2-----2--2--------------2--0-----------------0-----0-----------------------2-----
D|--2-----------------2--------------0-----------------0-----------------0-----2--------------2--------------
A|--3--------------------------------------------------------------------2-----3-----------------------------
E|-----------------------------------------------------3-----------------3-----------------------------1-----

E|--1--0--1-----1-----0-----0--1--0-----------------------------1--5-----3--------------1--1--1--
B|--------3--------3--1--------1-----3--3--1--------------1--------6-----3--------3--1--3-----1--
G|--------2-----------2--------2--------------2--0-----------------7-----4--------------3-----2--
D|--------0-----------2-----------------------0-----3--------------7-----5--------------3-----3--
A|--------------------0--------3-----------------------------------5-----5--------------1-----3--
E|--------------------------------------------1-----1--------------------3--------------------1--

VERSE 
E|-----------1--0-----1-----0--1--1-----8-----6--5--6-----------10----8-----11----10----
B|-----0--3--------1-----1-----------1--5--------------6--6-----11----10----13----11----
G|--0-----------0-----2-----0-----2--------------------------------10----10----10----10-
D|--------------------------------------------------------------------------------------
A|--------------------------------------------------------------------------------------
E|--------------------------------------------------------------------------------------

E|--13-12-10-8--6--5--3--1--1--1--1--1-----1-----1--0--0--5--0-----------------------1--------------------
B|--------------------------3-----3-----------------1--------1-----1-----------1--3-----------------------
G|--------------------------2-----------------------2--------------------2--3--------------------2--2-----
D|--------------------------0-----------------------2-----------------------3--------------3-----------3--
A|--------------------------------------------------0-----------------------1-----------------------0-----
E|--------------------------------------------------------------------------------------------------------



E|--------------1-----1--1--1--1-----1-----0--0--0--0-----------0-----------------2--------1-----3--3-----
B|--------1-----------3-----3--------------1--------1-----3--1--1-----3--1--7-----3-----1--3-----3--------
G|--3-----------2-----2--------------------2--------2-----------0-----------8-----2--------3-----3--------
D|-----3-----3--------0--------------------2--------2-----------2-----------7-----0--------3-----5--------
A|--1-----3--------------------------------0--------0-----------3-----------6--------------1-----5--------
E|-----------------------------------------------------------------------------------------------3--------

E|--3-----3-----5-----6-----3-----5-----
B|--------0-----5-----6-----3-----------
G|--------0-----6-----6-----4-----------
D|--------0-----7-----8-----5-----------
A|--------------------------5-----------
E|--------------------------3-----------

CHORUS REPEATS

FINAL CHORDS
E|--1--0-----1--------0--------0-----3--------1--------1-----
B|--3-----3-----------1--3--1--------3--------2--------1-----
G|--2-----------------2--------------3--------3--------2-----
D|--0-----------------2--------------5--------3--------3-----
A|--------------------0--------------5--------1--------3-----
E|-----------------------------------3-----------------1-----


\

tabs and chords, guitar tabs, music transcription, music technology, deep learning, music information retrieval, transcribe into tabs & chords, chordify, music renditions, songsterr, reverbnation, tabulature, bollywood chords, ultimate guitar, yousician, guitar lessons, acoustic guitar, electric guitar, guitar tuner, 911 tabs