Guitar Tabs for Love Me Like You Do

(/) Slide Up  (\) Slide Down  (h) Hammer On  (p) Pull Off  (b) Bend (r) Release (v) Vibrato (x) Muted

Tabs for Song : Love me like you do

You are the light...
E|-----------------------------------------------
B|-----4--4--------4--4--------4--4--2--2--------
G|--5-----------5-----------5--------------5--3--
D|-----------------------------------------------
A|-----------------------------------------------
E|-----------------------------------------------

you are the cure...
E|-----------------------------------------------------------
B|--------4--4--------4--4--------4--4--2--2-----------------
G|-----5-----------5-----------5--------------5--3--------5--
D|-----------------------------------------------------6-----
A|-----------------------------------------------------------
E|-----------------------------------------------------------

never knew that...
E|-----------4--3--3-----------------------------
B|--------4-----------4--4--------6-----------6--
G|-----5-----------------------5-----------5-----
D|-----------------------------------------------
A|-----------------------------------------------
E|-----------------------------------------------

so love me like you do (x2)
E|-----------------------------------------------------
B|-----------------------------------------------------
G|-----1-----3--3--3--1--1-----3--3--3--3--3--1--1-----
D|-----------------------------------------------------
A|-----------------------------------------------------
E|-----------------------------------------------------

touch me like you do
E|--------------------------------------------------------
B|--------------------------------------------------------
G|-----3--3--3--1--1-----3--3--3--3--3--1--1--------------
D|-----------------------------------------------3-----1--
A|--------------------------------------------------------
E|--------------------------------------------------------

what are you waiting for
E|--------------------------
B|-----------1-----1--------
G|-----1--3-----------1--3--
D|--------------------------
A|--------------------------
E|--------------------------

Yeah, I'll let you set the pace Cause I'm not thinking straight
E|-----------------11-------------------------------11----------------------
B|------7/9-----9--------11-13----9-----11-------9--------11-13----9-----11-
G|--------------------------------------------------------------------------
D|--------------------------------------------------------------------------
A|--------------------------------------------------------------------------
E|--------------------------------------------------------------------------

My head's spinning around I can't see clear no more
What are you waiting for?
E|--------11----------------------------------------------------------------------------
B|-----9--------11-13----9-----11-------9--------------------------9--11-13----13-9--11-
G|-----------------------------------10----8------8/10----------------------------------
D|--------------------------------------------------------11-10-------------------------
A|--------------------------------------------------------------------------------------
E|--------------------------------------------------------------------------------------


Now supports capo and sound effects for vibrato/pull-off/hammer/bends/mutes etc !!! Checkout help section
tabs and chords, guitar tabs, music transcription, music technology, deep learning, music information retrieval, transcribe into tabs & chords, chordify, music renditions, songsterr, reverbnation, tabulature, bollywood chords, ultimate guitar, yousician, guitar lessons, acoustic guitar, electric guitar, guitar tuner, 911 tabs