Louison Bobet For Ever - Ludwig Von 88 - Guitar Tabs

Guitare
    
                                                                                                                                                                                                                                                                                                                                                                                                                                                                                                                                                                                                                                                                                                                                                                                                                                                                                                                                                                                                                                                                                                                                                                                              
E|-------------------------|-----------------------|
B|-------------------------|-----------------------|
G|-------------------------|6--6--6--6--6-----x----|
D|--6-----6--6--6-----6----|6--6--6--6--6-----x----|
A|--6-----6--6--6-----6----|4--4--4--4--4-----x----|
E|--4-----4--4--4-----4----|-----------------------|

    
                                                                                                                                                                                                                                                                                                                                                                                                                                                                                                                                                                                                                                                                                                                                                                                                                                                                                                                                                                                                                                                                                                                                                                                              
E|-------------------------|-----------------------|
B|-------------------------|-----------------------|
G|--4-----4-----4-----4----|-----------------------|
D|--4-----4-----4-----4----|6--6--6--6--6-----x----|
A|--2-----2-----2-----2----|6--6--6--6--6-----x----|
E|-------------------------|4--4--4--4--4-----x----|

    
                                                                                                                                                                                                                                                                                                                                                                                                                                                                                                                                                                                                                                                                                                                                                                                                                                                                                                                                                                                                                                                                                                                                                                                              
E|-------------------------|-----------------------|
B|-------------------------|-----------------------|
G|-------------------------|6--6--6--6--6-----x----|
D|--6-----6--6--6-----6----|6--6--6--6--6-----x----|
A|--6-----6--6--6-----6----|4--4--4--4--4-----x----|
E|--4-----4--4--4-----4----|-----------------------|

    
                                                                                                                                                                                                                                                                                                                                                                                                                                                                                                                                                                                                                                                                                                                                                                                                                                                                                                                                                                                                                                                                                                                                                                                              
E|-------------------------|-----------------------|
B|-------------------------|-----------------------|
G|--4-----4-----4-----4----|-----------------------|
D|--4-----4-----4-----4----|6--6--6--6--6-----x----|
A|--2-----2-----2-----2----|6--6--6--6--6-----x----|
E|-------------------------|4--4--4--4--4-----x----|

    
                                                                                                                                                                                                                                                                                                                                                                                                                                                                                                                                                                                                                                                                                                                                                                                                                                                                                                                                                                                                                                                                                                                                                                                              
E|-------------------------|-----------------------|
B|-------------------------|-----------------------|
G|--6-----6-----4-----4----|-----------------------|
D|--6-----6-----4-----4----|6-----6--6--6--------6-|
A|--4-----4-----2-----2----|6-----6--6--6--------6-|
E|-------------------------|4-----4--4--4--------4-|

    
                                                                                                                                                                                                                                                                                                                                                                                                                                                                                                                                                                                                                                                                                                                                                                                                                                                                                                                                                                                                                                                                                                                                                                                              
E|-------------------------|-----------------------|
B|-------------------------|-----------------------|
G|--------------4--------4-|-----------------------|
D|--4--4--4--4--4--------4-|6--6--6--6--6----------|
A|--4--4--4--4--2--------2-|6--6--6--6--6----------|
E|--2--2--2--2-------------|4--4--4--4--4----------|

    
                                                                                                                                                                                                                                                                                                                                                                                                                                                                                                                                                                                                                                                                                                                                                                                                                                                                                                                                                                                                                                                                                                                                                                                              
E|-------------------------|-----------------------|
B|-------------------------|-----------------------|
G|--6-----6-----4-----4----|-----------------------|
D|--6-----6-----4-----4----|6-----6--6--6--------6-|
A|--4-----4-----2-----2----|6-----6--6--6--------6-|
E|-------------------------|4-----4--4--4--------4-|

    
                                                                                                                                                                                                                                                                                                                                                                                                                                                                                                                                                                                                                                                                                                                                                                                                                                                                                                                                                                                                                                                                                                                                                                                              
E|-------------------------|-----------------------|
B|-------------------------|-----------------------|
G|--------------4--------4-|-----------------------|
D|--4--4--4--4--4--------4-|6--6--6--6--6----------|
A|--4--4--4--4--2--------2-|6--6--6--6--6----------|
E|--2--2--2--2-------------|4--4--4--4--4----------|

    
                                                                                                                                                                                                                                                                                                                                                                                                                                                                                                                                                                                                 
E|-------------------------|
B|-------------------------|
G|-------------------------|
D|--6-----6--6--6-----6----|
A|--6-----6--6--6-----6----|
E|--4-----4--4--4-----4----|

    
                                                                                                                                                                                                                                                                                                                                                                                                                                                                                                                                                                                                                                                                                                                                                                                                                                                                                                                                                                                                                                                                                                                                                                                              
E|-------------------------|-----------------------|
B|-------------------------|-----------------------|
G|--6--6--6--6--6-----x----|4-----4-----4-----4----|
D|--6--6--6--6--6-----x----|4-----4-----4-----4----|
A|--4--4--4--4--4-----x----|2-----2-----2-----2----|
E|-------------------------|-----------------------|

    
                                                                                                                                                                                                                                                                                                                                                                                                                                                                                                                                                                                                                                                                                                                                                                                                                                                                                                                                                                                                                                                                                                                                                                                              
E|-------------------------|-----------------------|
B|-------------------------|-----------------------|
G|-------------------------|-----------------------|
D|--6--6--6--6--6-----x----|6-----6--6--6-----6----|
A|--6--6--6--6--6-----x----|6-----6--6--6-----6----|
E|--4--4--4--4--4-----x----|4-----4--4--4-----4----|

    
                                                                                                                                                                                                                                                                                                                                                                                                                                                                                                                                                                                                                                                                                                                                                                                                                                                                                                                                                                                                                                                                                                                                                                                              
E|-------------------------|-----------------------|
B|-------------------------|-----------------------|
G|--6--6--6--6--6-----x----|4-----4-----4-----4----|
D|--6--6--6--6--6-----x----|4-----4-----4-----4----|
A|--4--4--4--4--4-----x----|2-----2-----2-----2----|
E|-------------------------|-----------------------|

    
                                                                                                                                                                                                                                                                                                                                                                                                                                                                                                                                                                                                                                                                                                                                                                                                                                                                                                                                                                                                                                                                                                                                                                                              
E|-------------------------|-----------------------|
B|-------------------------|-----------------------|
G|-------------------------|6-----6-----4-----4----|
D|--6--6--6--6--6-----x----|6-----6-----4-----4----|
A|--6--6--6--6--6-----x----|4-----4-----2-----2----|
E|--4--4--4--4--4-----x----|-----------------------|

    
                                                                                                                                                                                                                                                                                                                                                                                                                                                                                                                                                                                                                                                                                                                                                                                                                                                                                                                                                                                                                                                                                                                                                                                              
E|-------------------------|-----------------------|
B|-------------------------|-----------------------|
G|-------------------------|------------4--------4-|
D|--6-----6--6--6--------6-|4--4--4--4--4--------4-|
A|--6-----6--6--6--------6-|4--4--4--4--2--------2-|
E|--4-----4--4--4--------4-|2--2--2--2-------------|

    
                                                                                                                                                                                                                                                                                                                                                                                                                                                                                                                                                                                                                                                                                                                                                                                                                                                                                                                                                                                                                                                                                                                                                                                              
E|-------------------------|-----------------------|
B|-------------------------|-----------------------|
G|-------------------------|6-----6-----4-----4----|
D|--6--6--6--6--6----------|6-----6-----4-----4----|
A|--6--6--6--6--6----------|4-----4-----2-----2----|
E|--4--4--4--4--4----------|-----------------------|

    
                                                                                                                                                                                                                                                                                                                                                                                                                                                                                                                                                                                                                                                                                                                                                                                                                                                                                                                                                                                                                                                                                                                                                                                              
E|-------------------------|-----------------------|
B|-------------------------|-----------------------|
G|-------------------------|------------4--------4-|
D|--6-----6--6--6--------6-|4--4--4--4--4--------4-|
A|--6-----6--6--6--------6-|4--4--4--4--2--------2-|
E|--4-----4--4--4--------4-|2--2--2--2-------------|

    
                                                                                                                                                                                                                                                                                                                                                                                                                                                                                                                                                                                                 
E|-------------------------|
B|-------------------------|
G|-------------------------|
D|--6--6--6--6--6----------|
A|--6--6--6--6--6----------|
E|--4--4--4--4--4----------|

    
                                                                                                                                                                                                                                                                                                                                                                                                                                                                                                                                                                                                                                                                                                                                                                                                                                                                                                                                                                                                                                                                                                                                                                                              
E|-------------------------|-----------------------|
B|-------------------------|-----------------------|
G|-------------------------|6--6--6--6--6-----x----|
D|--6-----6--6--6-----6----|6--6--6--6--6-----x----|
A|--6-----6--6--6-----6----|4--4--4--4--4-----x----|
E|--4-----4--4--4-----4----|-----------------------|

    
                                                                                                                                                                                                                                                                                                                                                                                                                                                                                                                                                                                                                                                                                                                                                                                                                                                                                                                                                                                                                                                                                                                                                                                              
E|-------------------------|-----------------------|
B|-------------------------|-----------------------|
G|--4-----4-----4-----4----|-----------------------|
D|--4-----4-----4-----4----|6--6--6--6--6-----x----|
A|--2-----2-----2-----2----|6--6--6--6--6-----x----|
E|-------------------------|4--4--4--4--4-----x----|

    
                                                                                                                                                                                                                                                                                                                                                                                                                                                                                                                                                                                                                                                                                                                                                                                                                                                                                                                                                                                                                                                                                                                                                                                              
E|-------------------------|-----------------------|
B|-------------------------|-----------------------|
G|-------------------------|6--6--6--6--6-----x----|
D|--6-----6--6--6-----6----|6--6--6--6--6-----x----|
A|--6-----6--6--6-----6----|4--4--4--4--4-----x----|
E|--4-----4--4--4-----4----|-----------------------|

    
                                                                                                                                                                                                                                                                                                                                                                                                                                                                                                                                                                                                                                                                                                                                                                                                                                                                                                                                                                                                                                                                                                                                                                                              
E|-------------------------|-----------------------|
B|-------------------------|-----------------------|
G|--4-----4-----4-----4----|-----------------------|
D|--4-----4-----4-----4----|6--6--6--6--6-----x----|
A|--2-----2-----2-----2----|6--6--6--6--6-----x----|
E|-------------------------|4--4--4--4--4-----x----|

    
                                                                                                                                                                                                                                                                                                                                                                                                                                                                                                                                                                                                                                                                                                                                                                                                                                                                                                                                                                                                                                                                                                                                                                                              
E|-------------------------|-----------------------|
B|-------------------------|-----------------------|
G|--6-----6-----4-----4----|-----------------------|
D|--6-----6-----4-----4----|6-----6--6--6--------6-|
A|--4-----4-----2-----2----|6-----6--6--6--------6-|
E|-------------------------|4-----4--4--4--------4-|

    
                                                                                                                                                                                                                                                                                                                                                                                                                                                                                                                                                                                                                                                                                                                                                                                                                                                                                                                                                                                                                                                                                                                                                                                              
E|-------------------------|-----------------------|
B|-------------------------|-----------------------|
G|--------------4--------4-|-----------------------|
D|--4--4--4--4--4--------4-|6--6--6--6--6----------|
A|--4--4--4--4--2--------2-|6--6--6--6--6----------|
E|--2--2--2--2-------------|4--4--4--4--4----------|

    
                                                                                                                                                                                                                                                                                                                                                                                                                                                                                                                                                                                                                                                                                                                                                                                                                                                                                                                                                                                                                                                                                                                                                                                              
E|-------------------------|-----------------------|
B|-------------------------|-----------------------|
G|--6-----6-----4-----4----|-----------------------|
D|--6-----6-----4-----4----|6-----6--6--6--------6-|
A|--4-----4-----2-----2----|6-----6--6--6--------6-|
E|-------------------------|4-----4--4--4--------4-|

    
                                                                                                                                                                                                                                                                                                                                                                                                                                                                                                                                                                                                                                                                                                                                                                                                                                                                                                                                                                                                                                                                                                                                                                                              
E|-------------------------|-----------------------|
B|-------------------------|-----------------------|
G|--------------4--------4-|-----------------------|
D|--4--4--4--4--4--------4-|6--6--6--6--6----------|
A|--4--4--4--4--2--------2-|6--6--6--6--6----------|
E|--2--2--2--2-------------|4--4--4--4--4----------|

    
                                                                                                                                                                                                                                                                                                                                                                                                                                                                                                                                                                                                 
E|-------------------------|
B|-------------------------|
G|-------------------------|
D|--6-----6--6--6-----6----|
A|--6-----6--6--6-----6----|
E|--4-----4--4--4-----4----|

    
                                                                                                                                                                                                                                                                                                                                                                                                                                                                                                                                                                                                                                                                                                                                                                                                                                                                                                                                                                                                                                                                                                                                                                                              
E|-------------------------|-----------------------|
B|-------------------------|-----------------------|
G|--6--6--6--6--6-----x----|4-----4-----4-----4----|
D|--6--6--6--6--6-----x----|4-----4-----4-----4----|
A|--4--4--4--4--4-----x----|2-----2-----2-----2----|
E|-------------------------|-----------------------|

    
                                                                                                                                                                                                                                                                                                                                                                                                                                                                                                                                                                                                                                                                                                                                                                                                                                                                                                                                                                                                                                                                                                                                                                                              
E|-------------------------|-----------------------|
B|-------------------------|-----------------------|
G|-------------------------|-----------------------|
D|--6--6--6--6--6-----x----|6-----6--6--6-----6----|
A|--6--6--6--6--6-----x----|6-----6--6--6-----6----|
E|--4--4--4--4--4-----x----|4-----4--4--4-----4----|

    
                                                                                                                                                                                                                                                                                                                                                                                                                                                                                                                                                                                                                                                                                                                                                                                                                                                                                                                                                                                                                                                                                                                                                                                              
E|-------------------------|-----------------------|
B|-------------------------|-----------------------|
G|--6--6--6--6--6-----x----|4-----4-----4-----4----|
D|--6--6--6--6--6-----x----|4-----4-----4-----4----|
A|--4--4--4--4--4-----x----|2-----2-----2-----2----|
E|-------------------------|-----------------------|

About Ludwig von 88 : The band has not released any new material since 2001, but has not disbanded . Their music is similar to that of BĂ©rurier Noir . Karim Berrouka on vocals, Nobru (real name Bruno Garcia) on guitars, Laurent and then Charlu on bass, and Jean-Mi on programming . The band had different line Among their notable stage clothing: cycling jerseys, diving suits, Mexican ponchos and various funny headgear . Among their Their music is influenced by genres - punk rock , alternative rock.

tabs and chords, guitar tabs, music transcription, music technology, deep learning, music information retrieval, transcribe into tabs & chords, chordify, music renditions, songsterr, reverbnation, tabulature, bollywood chords, ultimate guitar, yousician, guitar lessons, acoustic guitar, electric guitar, guitar tuner, 911 tabs