Guitar Tabs for Lost Woods (zelda) - Chaos Canine

Tabs for Song : 

Capo 4


E|-----------------------------0-----------------------------------------------------
B|--------0--------0--------0-----3-----0--1--0--------------------------0--------0--
G|-----2--------2--------2-----------2-----------0-----------0--------2--------2-----
D|--3--------3--------3-----------------------------2--0--2-----2--3--------3--------
A|--------------------2--------------------------------------------------------------
E|--1--------1-----------------------------------------------------1--------1--------

E|-----------0--------------0-----------------------------------5--7-----8--7--5-----------------
B|--------0-----3-----0--1-----0-----0--------------5--6-----8-----------------------5-----5-----
G|-----2-----------2--------------0-----0--------7--------5-----------5-----------5-----5-----5--
D|--3--------------------------------------0--2--0-----------------------------------------------
A|--2--------------------------------------------------------------------0-----------------------
E|-----------------------------------------------------------------------------------------------

E|-----------------5--7--8--10-12-------12----------------------5--7-----8--7--5-----------------
B|-----5--6-----8-----------------12-------12-------5--6-----8-----------------------5-----5-----
G|--7--------5-----------------------12-------12-7--------5-----------5-----------5-----5-----5--
D|--0--------------------------------------------0-----------------------------------------------
A|-----------------------0-----------------------------------------------0-----------------------
E|-----------------------------------------------------------------------------------------------

E|--------------------5-----7--5--8--7--10-8--12h13-12-12-------12-------12-------12-------
B|--5-----6--5--8--6-----8--------------------------------12-------12-------12-------12----
G|-----7-----------------------------------------------------12-------12-------12-------12-
D|--0--------------------------------------------------------------------------------------
A|--------------0--------------------------------------0-----------------------------------
E|--------------------------0--------------------------------------------------------------

E|--12-------12-------12-------12-------
B|-----12-------12-------12-------12----
G|--------12-------12-------12-------12-
D|--------------------------------------
A|--------------------------------------
E|--------------------------------------

E|--12-------12-------12-------12-------12-------12-------12-------12-------
B|-----12-------12-------12-------12-------12-------12-------12-------12----
G|--------12-------12-------12-------12-------12-------12-------12-------12-
D|--------------------------------------------------------------------------
A|--------------------------------------------------------------------------
E|--0-----------------------------------------------------------------------

E|--12-------12-------10-------10-------
B|--------------------------------------
G|-----9--------9--------9--------9-----
D|--------9--------9--------9--------9--
A|--8-----------------------------------
E|--------------------------------------

E|--12-------12-------12-------12-------12-------12-------12-------12-------12-
B|-----------------------------------------------------------------------------
G|-----9--------9--------9--------9--------9--------9--------9--------9--------
D|--------9--------9--------9--------9--------9--------9--------9--------9-----
A|-----------------------------------------------------------------------------
E|--------------------------------------0--------------------------------------

E|--0--------
B|-----1--0--
G|-----------
D|-----------
A|-----------
E|--0--------
tabs and chords, guitar tabs, music transcription, music technology, deep learning, music information retrieval, transcribe into tabs & chords, chordify, music renditions, songsterr, reverbnation, tabulature, bollywood chords, ultimate guitar, yousician, guitar lessons, acoustic guitar, electric guitar, guitar tuner, 911 tabs