Guitar Tabs for Los Suenos By Astor Piazzolla

(/) Slide Up  (\) Slide Down  (h) Hammer On  (p) Pull Off  (b) Bend (r) Release (v) Vibrato (x) Muted

Tabs for S|-----


BPM : 200

Song lyrics here 
E|--------0---3/7--7-----7-----7--7---7\-5p2--------5--3-----------------------------------------0--2--3-----3-----3--3---2p0--------2--0--------------------------------------
B|--0--1-----------5-----5-----5--4--------------3-----0--------------------3--------0--------0--------0-----0-----0--2--------4-----4-----0--1--2--3--2--1--0-----------------
G|-----------------5-----5-----5--4-----------------------0--------------2--------0-----0--------------0-----0-----0--3--------------2--------------------------------------0--
D|--------------------------------0-----------0--------------0--------0--------------2-----0--------------------------2--------------4-----------------------------------------
A|-----------------0--0-----0--0-----------------------------------------------------------------------4--4-----4--4--------------2---------------------------------2/7--7-----
E|--------------------------------------------------------------3--2-----------0--------------------------------------------------------0-----2-----3-----2-----0--------------

E|--------0---3/7--7-----7-----7--7---7\-5p2--------5--3-----------------------------------------0--2--3-----3-----3--3---2p0--------2--0--------------------------------------
B|--0--1-----------5-----5-----5--4--------------3-----0--------------------3--------0--------0--------0-----0-----0--2--------4-----4-----0--1--2--3--2--1--0--------------0--
G|-----------------5-----5-----5--4-----------------------0--------------2--------0-----0--------------0-----0-----0--3--------------2--------------------------------------0--
D|--------------------------------0-----------0--------------0--------0--------------2-----0--------------------------2--------------4-----------------------------------------
A|-----------------0--0-----0--0--------------------------------------------------------------------------------------------------2---------------------------------2/7--7-----
E|--------------------------------------------------------------3--2-----------0-----------------------4--4-----4--4--------------------0-----2-----3-----2-----0--------------

E|-----------0--------0--------0-----0--------------------------------------------------------------------------------------------------------------------------------------
B|--8--7--6--------------------------0---------3p1--0--------3--1--------1--------1-----1--------1-----0---1h3--3--------3--3-----1--------------1--0--------0--------12)0--
G|-----------------2--------2-----2--1--------------------1-----------2--------2-----2--------2-----2-----------------0--------------3--2-----------------0--------12)---2--
D|--------------3--------3-----------------3-----------2-----------2--------2--------------2-----------------------2--------0--0--------------0--------0--------12)---------
A|-----------2--------2--------2--------------------------------0--------0--------0-----------------------------0--------3--------------------------------------------------
E|--------------------------------------0-----------------------------------------------3--------------------------------------------------2--------3--------------------2--

E|--7--10-8--7--------7-----7---------5p3--2--5--3--------3--3--3--------2--0-----2--0--------2--2--3-----------------0--------2-----------2--3---5/7--
B|-----------------5--7--5--7-----0-----------------------1--------------------3--------------0--1--0---------3p1--0--------------------0--------------
G|--------------0--------------7-----------------------0-----------0-----------------------2-----------0-----------------3--------------2--------------
D|--------------------------0-----------------------2-----------------0-----------------2-----------------2-----------------2--------1-----------------
A|-----------------------------------------------3--------------2--------------------0--------------------------------------------2--------------------
E|-----------0--------------------------------------------------------------------------------------3--------------------2-----------------------------

E|--7--------7-----7---------5p3--2--5--3--------3--3--3--------2--0-----2--0--------2--2--3-----------------0--------2-----3-----
B|--------5--7--5--7-----0-----------------------1--------------------3--------------0--1--0---------3p1--0--------------0--------
G|-----0--------------7-----------------------0-----------0-----------------------2-----------0-----------------3--------2--------
D|-----------------0-----------------------2-----------------0-----------------2-----------------2-----------------2-----1--------
A|--------------------------------------3--------------2--------------------0--------------------------------------------------2--
E|--0--------------------------------------------------------------------------------------3--------------------2-----------------

E|-----------------------------------------------
B|-----0--1-----0--3--------0--1-----0-----0-----
G|-----0--2-----0--4--------0--2-----2-----0-----
D|-----2--3-----2--5--------2--3-----2--3--2-----
A|-----------------------------------------------
E|--0--------0--------0--0--------0-----------0--



Use manual mode to free up cursor. Paste any tab in acousterr tab maker and we'll play it !!!
tabs and chords, guitar tabs, music transcription, music technology, deep learning, music information retrieval, transcribe into tabs & chords, chordify, music renditions, songsterr, reverbnation, tabulature, bollywood chords, ultimate guitar, yousician, guitar lessons, acoustic guitar, electric guitar, guitar tuner, 911 tabs