Ukulele Tabs for Lord Of The Rings

BPM : 200

A|-----0--2-----5-----0--2--0-----------2--5-----7-----10-9--5-----2-----------0--------0-----2-----5--
E|--3-----3--------------------3-----------------0-----------------3-----------2-----3--------3--------
C|--------2--------------------------------------0-----------------2-----------2--------------2--------
G|-----------------------------------------------0-----------------0-----------2--------------0--------

A|-----------0-----2--0-----------7--------5-----2--------0-----------------------
E|-----------3-----------3--------0--------0--------------2-----------------------
C|-----------2--------------------0--------0--------------2-----------------------
G|-----------0--------------------0--------0--------------2-----------------------

A|--------------------------------------3--5-----6-----5--3-----1-----3--5-----3--------1--------0-----
E|--3--------1-----1--1--------3-----------------3--------------1--------------3--------3--------1-----
C|--2--------2-----------------2-----------------3--------------2--------------3--------3--------0-----
G|--0--------3-----------------0-----------------3--------------3--------------0--------3--------2-----


A|-----------------------------------------3--5-----6-----5--6-----8-----5--8-----10-------8-----8--8-----10----------
E|-----3--------1-----1--1--------3-----------------3--------------5--------------7--------6--------------7-----------
C|-----2--------2-----------------2-----------------3--------------5--------------7--------5--------------7-----------
G|-----0--------3-----------------0-----------------3--------------5--------------7--------7--------------7-----------

A|--------------------------------
E|--3--------1-----1--1--------3--
C|--2--------2-----------------2--
G|--0--------3-----------------0--


tabs and chords, guitar tabs, music transcription, music technology, deep learning, music information retrieval, transcribe into tabs & chords, chordify, music renditions, songsterr, reverbnation, tabulature, bollywood chords, ultimate guitar, yousician, guitar lessons, acoustic guitar, electric guitar, guitar tuner, 911 tabs