Guitar Tabs for Look What You Made Me Do - Taylor Swift Tabs

(/) Slide Up  (\) Slide Down  (h) Hammer On  (p) Pull Off  (b) Bend (r) Release (v) Vibrato

Look what you made me do (Taylor Swift) Guitar Tabs

I dont like your little games
E|--------------------------------
B|--------------------------------
G|--2-----2-----5--7--5--4--2-----
D|--------------------------------
A|--------------------------------
E|--------------------------------

dont like your tilted stage
E|--------------------------
B|--------------------------
G|--2-----5--7--5--4--2-----
D|--------------------------
A|--------------------------
E|--------------------------

stage, the role you made me play
E|--------------------------
B|--------------------------
G|--2-----5--7--5--4--2-----
D|--------------------------		
A|--------------------------
E|--------------------------

Oh the fool dont like you
E|-----------------
B|--------3--------
G|--2--5-----2-----
D|-----------------
A|-----------------
E|-----------------


But I got smarter I got harder in the nick of time
E|-----------------------------------
B|--------------------------5--5-----
G|-----2--2--2--2--2--2--2-----------
D|-----------------------------------
A|--0--------------------------------
E|-----------------------------------


Honey I rose up from the dead I do it all the time
E|-----------------------------------
B|--------------------------5--5-----
G|-----2--2--2--2--2--2--2-----------
D|-----------------------------------
A|--0--------------------------------
E|-----------------------------------

I got a list of names and yours is in red underlined
E|-----------------------------------
B|--------------------------5--5-----
G|-----2--2--2--2--2--2--2-----------
D|-----------------------------------
A|--0--------------------------------
E|-----------------------------------

I check it once and I check it twice
E|--------------------------
B|--------------------------
G|-----2--2--2-----2--2-----
D|--------------------------
A|--0-----------0-----------
E|--------------------------

Oh look what you made me do
E|--------------------
B|--------------------
G|--------------------
D|-----2--2--1--2-----
A|--0--------------0--
E|--------------------

I dont like you kingdom keys
E|--------------------------------
B|--------------------------------
G|--2-----2-----5--7--5--4--2-----
D|--------------------------------
A|--------------------------------
E|--------------------------------

and so on !!!

Comments are welcome
tabs and chords, guitar tabs, music transcription, music technology, deep learning, music information retrieval, transcribe into tabs & chords, chordify, music renditions, songsterr, reverbnation, tabulature, bollywood chords, ultimate guitar, yousician, guitar lessons, acoustic guitar, electric guitar, guitar tuner, 911 tabs