Guitar Tabs for Long Time Coming

(/) Slide Up  (\) Slide Down  (h) Hammer On  (p) Pull Off  (b) Bend (r) Release (v) Vibrato (x) Muted

Tabs for Song : 

Song lyrics here


Intro
E|--------------------------------------------------------------------------0--
B|--------------1--------------1--------------------1-----------------0--------
G|-----------2--------------------2--------------2-----------------0-----0-----
D|--------2-----------------2-----------------2-----------------2--------------
A|-----0-----------------0-----------------0-----------------2-----------------
E|--0-----------------0-----------------0-----------------0--------------------

E|--------------------------------------------------------------------------1--
B|--------------2--------------2--------------------2-----------------1--------
G|-----------3--------------------3--------------3-----------------1-----1-----
D|--------3-----------------3-----------------3-----------------3--------------
A|-----1-----------------1-----------------1-----------------3-----------------
E|--1-----------------1-----------------1-----------------1--------------------

E|--2--x--x--x--x--2--x--x--x--x--2--x--x--x--x--2--x--x--x--x-----x--x--x--x-----x--x--x--x-----x--x--x--x--
B|--3--x--x--x--x--3--x--x--x--x--3--x--x--x--x--3--x--x--x--x--1--x--x--x--x--1--x--x--x--x--1--x--x--x--x--
G|--2--x--x--x--x--2--x--x--x--x--2--x--x--x--x--2--x--x--x--x--2--x--x--x--x--2--x--x--x--x--2--x--x--x--x--
D|-----x--x--x--x-----x--x--x--x-----x--x--x--x-----x--x--x--x--2--x--x--x--x--2--x--x--x--x--2--x--x--x--x--
A|-----x--x--x--x-----x--x--x--x-----x--x--x--x-----x--x--x--x-----x--x--x--x-----x--x--x--x-----x--x--x--x--
E|-----x--x--x--x-----x--x--x--x-----x--x--x--x-----x--x--x--x-----x--x--x--x-----x--x--x--x-----x--x--x--x--

E|-----x--x--x--x-----x--x--x--x-----x--x--x--x-----x--x--x--x--3--x--x--x--x--3--x--x--x--x--
B|--1--x--x--x--x-----x--x--x--x-----x--x--x--x--3--x--x--x--x-----x--x--x--x-----x--x--x--x--
G|--2--x--x--x--x-----x--x--x--x-----x--x--x--x-----x--x--x--x-----x--x--x--x-----x--x--x--x--
D|--2--x--x--x--x--2--x--x--x--x--2--x--x--x--x--2--x--x--x--x--2--x--x--x--x--2--x--x--x--x--
A|-----x--x--x--x--2--x--x--x--x--2--x--x--x--x--2--x--x--x--x--2--x--x--x--x--2--x--x--x--x--
E|-----x--x--x--x-----x--x--x--x-----x--x--x--x-----x--x--x--x-----x--x--x--x-----x--x--x--x--

E|--2--x--x--x--x--2--x--x--x--x--2--x--x--x--x--2--x--x--x--x-----x--x--x--x-----x--x--x--x-----x--x--x--x--
B|--3--x--x--x--x--3--x--x--x--x--3--x--x--x--x--3--x--x--x--x--1--x--x--x--x--1--x--x--x--x--1--x--x--x--x--
G|--2--x--x--x--x--2--x--x--x--x--2--x--x--x--x--2--x--x--x--x--2--x--x--x--x--2--x--x--x--x--2--x--x--x--x--
D|-----x--x--x--x-----x--x--x--x-----x--x--x--x-----x--x--x--x--2--x--x--x--x--2--x--x--x--x--2--x--x--x--x--
A|-----x--x--x--x-----x--x--x--x-----x--x--x--x-----x--x--x--x-----x--x--x--x-----x--x--x--x-----x--x--x--x--
E|-----x--x--x--x-----x--x--x--x-----x--x--x--x-----x--x--x--x-----x--x--x--x-----x--x--x--x-----x--x--x--x--

E|-----x--x--x--x-----x--x--x--x-----x--x--x--x-----x--x--x--x--3--x--x--x--x--3--x--x--x--x--
B|--1--x--x--x--x-----x--x--x--x-----x--x--x--x--3--x--x--x--x-----x--x--x--x-----x--x--x--x--
G|--2--x--x--x--x-----x--x--x--x-----x--x--x--x-----x--x--x--x-----x--x--x--x-----x--x--x--x--
D|--2--x--x--x--x--2--x--x--x--x--2--x--x--x--x--2--x--x--x--x--2--x--x--x--x--2--x--x--x--x--
A|-----x--x--x--x--2--x--x--x--x--2--x--x--x--x--2--x--x--x--x--2--x--x--x--x--2--x--x--x--x--
E|-----x--x--x--x-----x--x--x--x-----x--x--x--x-----x--x--x--x-----x--x--x--x-----x--x--x--x--

E|-----x--x--x--x-----x--x--x--x-----x--x--x--x-----x--x--x--x-----x--x--x--x-----x--x--x--x--
B|-----x--x--x--x-----x--x--x--x-----x--x--x--x-----x--x--x--x--1--x--x--x--x--1--x--x--x--x--
G|--2--x--x--x--x--2--x--x--x--x--2--x--x--x--x--2--x--x--x--x--2--x--x--x--x--2--x--x--x--x--
D|--2--x--x--x--x--2--x--x--x--x--2--x--x--x--x--2--x--x--x--x--2--x--x--x--x--2--x--x--x--x--
A|-----x--x--x--x-----x--x--x--x-----x--x--x--x-----x--x--x--x-----x--x--x--x-----x--x--x--x--
E|-----x--x--x--x-----x--x--x--x-----x--x--x--x-----x--x--x--x-----x--x--x--x-----x--x--x--x--

E|-----x--x--x--x-----x--x--x--x--3--x--x--x--3--3--3--3--3---3\5--3--------------3---3\7--7--5--------
B|--1--x--x--x--x--1--x--x--x--x--3--x--x--x--3--3--3--3--3---3\------5--3v-3--5-----------------7--5v-
G|--2--x--x--x--x--2--x--x--x--x-----x--x--x-----------------------------------------------------------
D|--2--x--x--x--x--2--x--x--x--x--2--x--x--x--2--2--2--2--2---2\---------------------------------------
A|-----x--x--x--x-----x--x--x--x--2--x--x--x--2--2--2--2--2---2\---------------------------------------
E|-----x--x--x--x-----x--x--x--x-----x--x--x-----------------------------------------------------------

E|-----------------------------------------------------------------------------------------------------
B|--5--8-----------------------------------------------------------------------------------------------
G|--------5--7-----------------------------------------------------------------------------------------
D|--------------5--7-----------5--5--5--5--5--5--5---5\7--7--7--7--7--7--7---7\5--5--5--5--5--5--5---5/
A|--------------------5--7-----7--7--7--7--7--7--7---7\9--9--9--9--9--9--9---9\7--7--7--7--7--7--7---7/
E|-----------------------------------------------------------------------------------------------------

E|--------------------------0-----------------2--2--2--2--------------------------------------------------
B|--------------------------0-----2--2--2--2--3--3--3--3--1--1--1--1--1--1--1--1--------------1--1--1--1--
G|--------------------------0-----2--2--2--2--2--2--2--2--------------2--2--2--2--------------2--2--2--2--
D|--7--7--7--7--7--7--7--7--9-----2--2--2--2--------------2--2--2--2--2--2--2--2--2--2--2--2--2--2--2--2--
A|--9--9--9--9--9--9--9--9--11----------------------------3--3--3--3--------------2--2--2--2--------------
E|--------------------------0-----------------------------------------------------------------------------

E|--------------x--x--
B|--------------3--3--
G|--------------0--0--
D|--2--2--2--2--0--2--
A|--2--2--2--2--2--3--
E|--------------3--0--







Paste any tab in acousterr's tab maker and we'll play it !!!
Now supports capo and sound effects for vibrato/pull-off/hammer/bends/mutes etc !!! Checkout help section
tabs and chords, guitar tabs, music contests, music covers, songsterr, reverbnation, renditions, tabulature, bollywood chords, ultimate guitar, yousician, guitar lessons, torrins, fender, gibson, acoustic guitar, electric guitar, youtube covers, gootar, guitar tuner, A-Z tabs, 911 tabs