Guitar Tabs for Lol

(/) Slide Up  (\) Slide Down  (h) Hammer On  (p) Pull Off  (b) Bend (r) Release (v) Vibrato (x) Muted

Tabs & Chords
BPM : 156.0
Check Track 2 for Chord Positions 

                      Cm    Gm                A#          G#          D#                Fm       
E|--------------5-----4--------------------------------------------------------------------------
B|--4-----------------------------------3-----------------4--------------------------------------
G|--------0-----------------0-----3-----------------5-----------3-----0-----------------------3--
D|--------------------------------------------6-----------------------------------3-----3--------
A|--------------------------------------------------------------------------6--------------------
E|-----------------------------------------------------------------------------------------------

       A#    D#    G                                C                                         Fm 
E|--------------------------------4-----------------------------------------0-----3--------------
B|-----4-----4--------0--4-----7-----6-----4--4-----7-----3--------------------------------------
G|-----------------6--------------------------------------------5-----5-----------------3--------
D|--------------------------------------------------------------------------------------------3--
A|-----------------------------------------------------------------------------------------------
E|-----------------------------------------------------------------------------------------------

             A#             Cm          Cm    A#          G#                      
E|--------------------------------------------------------------16----6-----3--3--
B|-----------------3--------------------------------3-----------------------------
G|-----5-----3-----------5--0--0--5-----5-----3-----------5-----------------------
D|--------------------------------------------------------------------------------
A|--------------------------------------------------------------------------------
E|--------------------------------------------------------------------------------

Guitar Tabs for Lol






                      Cm    Gm                A#          G#          D#                Fm       
E|--------------------3-----3-----------------1-----------4-----------6-----------------1--------
B|--------------------4-----3-----------------3-----------4-----------8-----------------1--------
G|--------------------5-----3-----------------3-----------5-----------8-----------------1--------
D|--------------------5-----5-----------------3-----------6-----------8-----------------3--------
A|--------------------3-----5-----------------1-----------6-----------6-----------------3--------
E|--------------------------3-----------------------------4-----------------------------1--------

       A#    D#    G                                C                                         Fm 
E|-----1-----6-----3--------------------------------0-----------------------------------------1--
B|-----3-----8-----3--------------------------------1-----------------------------------------1--
G|-----3-----8-----4--------------------------------0-----------------------------------------1--
D|-----3-----8-----5--------------------------------2-----------------------------------------3--
A|-----1-----6-----5--------------------------------3-----------------------------------------3--
E|-----------------3--------------------------------------------------------------------------1--

             A#             Cm          Cm    A#          G#                      
E|-----------1--------------3-----------3-----1-----------4-----------------------
B|-----------3--------------4-----------4-----3-----------4-----------------------
G|-----------3--------------5-----------5-----3-----------5-----------------------
D|-----------3--------------5-----------5-----3-----------6-----------------------
A|-----------1--------------3-----------3-----1-----------6-----------------------
E|--------------------------------------------------------4-----------------------

tabs and chords, guitar tabs, music transcription, music technology, deep learning, music information retrieval, transcribe into tabs & chords, chordify, music renditions, songsterr, reverbnation, tabulature, bollywood chords, ultimate guitar, yousician, guitar lessons, acoustic guitar, electric guitar, guitar tuner, 911 tabs