Guitar Tabs for Lo maan liya

Tabs for Song : Lo maan liya humne

intro 

E|--------5--4--5--4--5--4--5--4---5\7--7--4--4-----
B|--------------------------------------------------
G|---4\6--------------------------------------------
D|--------------------------------------------------
A|--------------------------------------------------
E|--------------------------------------------------

E|--------5--4--5--4--5--4--5--4--5--7--7-----
B|--------------------------------------------
G|---4\6--------------------------------------
D|--------------------------------------------
A|--------------------------------------------
E|--------------------------------------------

E|-----7--5---7\9--7--9--7--9--7--9--10-10-7--7-----
B|--------------------------------------------------
G|--6-----------------------------------------------
D|--------------------------------------------------
A|--------------------------------------------------
E|--------------------------------------------------

E|--7--5---7\9--9--5--5-----5--4-----
B|-----------------------7-----------
G|-----------------------------------
D|-----------------------------------
A|-----------------------------------
E|-----------------------------------

lo maan liya humne
E|--------------------------------------
B|-----------------------------2--------
G|-----------2--2--------2--4-----4-----
D|--4-----4--------4--4-----------------
A|--------------------------------------
E|--------------------------------------

hai pyaar nahi tumko
E|--------------------------------------
B|--------------------------------------
G|--1-----1--------------1--1-----------
D|-----------3--3--3--3--------4--4-----
A|--------------------------------------
E|--------------------------------------

tum yaad nahi humko
E|-----------------------------------
B|-----------------------------2-----
G|-----------2--2--------2--4-----4--
D|--4-----4--------4--4--------------
A|-----------------------------------
E|-----------------------------------

hum yaad nahi tumko
E|--------------------------------------
B|--------------------------------------
G|--1-----1--------------1--1-----------
D|-----------3--3--3--3--------4--4-----
A|--------------------------------------
E|--------------------------------------

bas ek dafa mudke dekho
E|--------------------0--------------
B|-----------------------3--3--3-----
G|-----1--2--------------------------
D|--4--------4--2--2-----------------
A|-----------------------------------
E|-----------------------------------

aye yaar zara humko
E|--2--1--2-----------------------------------
B|-----------2--2--0-----0--3--2--0-----------
G|-----------------------------------2--1-----
D|--------------------------------------------
A|--------------------------------------------
E|--------------------------------------------

lo maan liya humne
E|-----------------------------------------
B|--------------------------------2--------
G|-----------2--2--------2-----4-----4-----
D|--4-----4--------4--4--------------------
A|-----------------------------------------
E|-----------------------------------------

hai pyaar nahi tumko
E|--------------------------------------
B|--------------------------------------
G|--1-----1--------------1--1-----------
D|-----------3--3--3--3--------4--4-----
A|--------------------------------------
E|--------------------------------------

tum yaad nahi humko
E|-----------------------------------
B|-----------------------------2-----
G|-----------2--2--------2--4-----4--
D|--4-----4--------4--4--------------
A|-----------------------------------
E|-----------------------------------

hum yaad nahi tumko
E|--------------------------------------
B|--------------------------------------
G|--1-----1--------------1--1-----------
D|-----------3--3--3--3--------4--4-----
A|--------------------------------------
E|--------------------------------------

E|--------5--4--5--4--5--4--5--4---5\7--7--4--4-----
B|--------------------------------------------------
G|---4\6--------------------------------------------
D|--------------------------------------------------
A|--------------------------------------------------
E|--------------------------------------------------

E|--------5--4--5--4--5--4--5--4--5--7--7-----
B|--------------------------------------------
G|---4\6--------------------------------------
D|--------------------------------------------
A|--------------------------------------------
E|--------------------------------------------

E|-----7--5---7\9--7--9--7--9--7--9--10-10-7--7-----
B|--------------------------------------------------
G|--6-----------------------------------------------
D|--------------------------------------------------
A|--------------------------------------------------
E|--------------------------------------------------

E|--7--5---7\9--9--5--5-----5--4-----
B|-----------------------7-----------
G|-----------------------------------
D|-----------------------------------
A|-----------------------------------
E|-----------------------------------

lo maan liya dekha hi nahi
E|-----0--------------------------------------------
B|--2-----2--0--------------------------------------
G|--------------2--2--2-----2--1---2\4--4--4--4-----
D|--------------------------------------------------
A|--------------------------------------------------
E|--------------------------------------------------

tere kaandhe ka wo til
E|--------------------------------------
B|--------------------------------------
G|--1--1--1--------------1--1-----------
D|-----------3--3--3--3--------4--4-----
A|--------------------------------------
E|--------------------------------------

lo maan liya toota hi nahi
E|-----0--------------------------------------------
B|--2-----2--0--------------------------------------
G|--------------2--2--2-----2--1---2\4--4--4--4-----
D|--------------------------------------------------
A|--------------------------------------------------
E|--------------------------------------------------

tere haatho se mera dil
E|--------------------------------------
B|--------------------------------------
G|--1--1--1--------------1--1-----------
D|-----------3--3--3--3--------4--4-----
A|--------------------------------------
E|--------------------------------------


chhaaon mein teri beeti hi nahi
E|-----------------------0--------------
B|--------------------------3--3--3-----
G|-----1--2-----------------------------
D|--4--------4--2-----2-----------------
A|--------------------------------------
E|--------------------------------------

wo garmi ki baatein
E|--2--1--2-----------------------------------
B|-----------2--2--0-----0--3--2--0-----------
G|-----------------------------------2--1-----
D|--------------------------------------------
A|--------------------------------------------
E|--------------------------------------------

baahon mein teri guzri hi nahi
E|-----------------------0--------------
B|--------------------------3--3--3-----
G|-----1--2-----------------------------
D|--4--------4--2-----2-----------------
A|--------------------------------------
E|--------------------------------------

wo sardi ki raatein
E|--2--1--2-----------------------------------
B|-----------2--2--0-----0--3--2--0-----------
G|-----------------------------------2--1-----
D|--------------------------------------------
A|--------------------------------------------
E|--------------------------------------------


tabs and chords, guitar tabs, music contests, music covers, songsterr, reverbnation, renditions, tabulature, bollywood chords, ultimate guitar, yousician, guitar lessons, torrins, fender, gibson, acoustic guitar, electric guitar, youtube covers, gootar, guitar tuner, A-Z tabs, 911 tabs