Bass Tabs for Little Richard - Tutti Frutti

Little Richard - Tutti Frutti

G|-----------7--8--7-----------------7--8--7--------
D|-----7--10----------10-7-----7--10----------10-7--
A|--8-----------------------8-----------------------
E|--------------------------------------------------

G|-----------------------------------7--8--7--------
D|-----------5--6--5-----------7--10----------10-7--
A|-----5--8-----------8--5--8-----------------------
E|--6-----------------------------------------------

G|--------------------------------------------
D|-----------7-----------5-----7--8--9--10-10-
A|-----7--10-------5--8-----8-----------------
E|--8-----------6-----------------------------

Stop
G|--------------------------
D|--------------------------
A|--------8-----------------
E|--8--6-----8--8--8--8--8--
tabs and chords, guitar tabs, music transcription, music technology, deep learning, music information retrieval, transcribe into tabs & chords, chordify, music renditions, songsterr, reverbnation, tabulature, bollywood chords, ultimate guitar, yousician, guitar lessons, acoustic guitar, electric guitar, guitar tuner, 911 tabs