Guitar Tabs for Little Me

(/) Slide Up  (\) Slide Down  (h) Hammer On  (p) Pull Off  (b) Bend (r) Release (v) Vibrato (x) Muted

Tabs for Song : 
BPM : 200



E|-----------------------------------0--------------------3--------------------0-----------2--3--2--
B|--------------------------------0-----0--------------0-----0--------------1-----1--------3--3--3--
G|-----------------------------------------0--------------------0--------------------2-----2--2--2--
D|-----------------------------2--------------2-----0--------------0-----2--------------2--0--0--0--
A|--2--3--2--0--2--0--------------------------------------------------0-----------------------------
E|--------------------3--2--0--------------------3--------------------------------------------------


E|-----------0--------------------3--------------------0-----------2--3--2--
B|--------0-----0--------------0-----0--------------1-----1--------3--3--3--
G|-----------------0--------------------0--------------------2-----2--2--2--
D|-----2--------------2-----0--------------0-----2--------------2--0--0--0--
A|--------------------------------------------0-----------------------------
E|--0--------------------3--------------------------------------------------
tabs and chords, guitar tabs, music transcription, music technology, deep learning, music information retrieval, transcribe into tabs & chords, chordify, music renditions, songsterr, reverbnation, tabulature, bollywood chords, ultimate guitar, yousician, guitar lessons, acoustic guitar, electric guitar, guitar tuner, 911 tabs