Guitar Tabs for Little Light - Kensington

(/) Slide Up  (\) Slide Down  (h) Hammer On  (p) Pull Off  (b) Bend (r) Release (v) Vibrato (x) Muted

Tabs for Song : 
BPM : ?

3x spelen 
 e|-5-10-8-5-10-8-3-5-1-3-5-3
 B|--------------------------    
 G|--------------------------
 D|--------------------------
 A|-5-10-8-5-10-8-3-5-1-3-5-3
 E|--------------------------

1x spelen
e|-5-8-3-5-1-8-3--
B|---------------6
G|----------------
D|----------------
A|-5-8-3-5-1-8-3--
E|----------------

1x spelen(Akkoorden) 
e|----5--8-----------5--8-------
B|----6--10----------6--10--12--
G|-7--7--10--12---7--7--10--12--
D|-8--7--10--12---8--7--10--12--
A|-8--5--8---10---8--5--8---10--
E|-6--------------6-------------

1x spelen
e|-8-10----
B|------5-6
G|---------
D|---------
A|---------
E|---------

1x spelen
e|--------------------
B|-10-5-6-3-10-5-3-5-6
G|--------------------
D|--------------------
A|-8--3-5-1-8--3-1-3-5
E|--------------------

1x spelen
e|-----------------
B|-10-5-6-3-10-6---
G|---------------5-
D|-----------------
A|-8--3-5-1-8--3-3-
E|-----------------

1x spelen(Akkoorden) 
e|----5--8-----------5--8-------
B|----6--10----------6--10--12--
G|-7--7--10--12---7--7--10--12--
D|-8--7--10--12---8--7--10--12--
A|-8--5--8---10---8--5--8---10--
E|-6--------------6-------------

1x spelen
e|-8-10-
B|------
G|------
D|------
A|------
E|------

2x spelen(Power akkoorden)( Palm mutend spelen en steeds harder, een echte opbouw met de laatste C open aanslaand)
e|---------
B|---------
G|-------5-
D|-5-8-3-5-
A|-5-8-3-3-
E|-3-6-1---

8x spelen(Solo!)
e|----------10-12-----10-12-13-15---------8-10-10~(v)
B|-10-12-14--------13-------------8-10-12---------
G|------------------------------------------------
D|------------------------------------------------
A|------------------------------------------------
E|------------------------------------------------


tabs and chords, guitar tabs, music transcription, music technology, deep learning, music information retrieval, transcribe into tabs & chords, chordify, music renditions, songsterr, reverbnation, tabulature, bollywood chords, ultimate guitar, yousician, guitar lessons, acoustic guitar, electric guitar, guitar tuner, 911 tabs