Guitar Tabs for Lisa's Song. For The Wedding

Lisa's Song



INTRO

    D                                             C#/D                                             G/D                                              D                     C#/D             
E|-----------------------------------------------------------------------------------------------------------------------------------------------------------------------------------------------------------|
B|--------3-----------3-----------3-----------3-----------3-----------3-----------3-----------3-----------3-----------3-----------3-----------3-----------3-----------3-----------3-----------3--------------|
G|-----2-----2-----2-----2-----2-----2-----2-----2-----2-----2-----2-----2-----2-----2-----2-----2-----2-----2-----2-----2-----2-----2-----2-----2-----2-----2-----2-----2-----2-----2-----2-----2-----------|
D|--0-----------0-----------0-----------0-----------------------------------------------------------------------------------------------------------0-----------0--------------------------------------------|
A|--------------------------------------------------4-----------4-----------4-----------4-----------------------------------------------------------------------------------4-----------4--------------------|
E|--------------------------------------------------------------------------------------------------3-----------3-----------3-----------3--------------------------------------------------------------------|

Verse 1 x 2

    D                                             C#/D                                             G/D                                              D                     C#/D             
E|-----------------------------------------------------------------------------------------------------------------------------------------------------------------------------------------------------------|
B|--------3-----------3-----------3-----------3-----------3-----------3-----------3-----------3-----------3-----------3-----------3-----------3-----------3-----------3-----------3-----------3--------------|
G|-----2-----2-----2-----2-----2-----2-----2-----2-----2-----2-----2-----2-----2-----2-----2-----2-----2-----2-----2-----2-----2-----2-----2-----2-----2-----2-----2-----2-----2-----2-----2-----2-----------|
D|--0-----------0-----------0-----------0-----------------------------------------------------------------------------------------------------------0-----------0--------------------------------------------|
A|--------------------------------------------------4-----------4-----------4-----------4-----------------------------------------------------------------------------------4-----------4--------------------|
E|--------------------------------------------------------------------------------------------------3-----------3-----------3-----------3--------------------------------------------------------------------|

Pre-Chorus

   G/D                      D                     C#/D                      D           E           G                       D                     C#/D                    C#/D
E|--------------------------------------------------------------------------------------------------------------------------------------------------------------------------0--------------------------------|
B|--------3-----------3-----------3-----------3-----------3-----------3-----------3-----------5-----------3-----------3-----------3-----------3-----------3-----------3-----3--------------------------------|
G|-----2-----2-----2-----2-----2-----2-----2-----2-----2-----2-----2-----2-----2-----2-----4-----4-----2-----2-----2-----2-----2-----2-----2-----2-----2-----2-----2-----2--2--------------------------------|
D|--------------------------0-----------0-----------------------------------0-----------------------------------------------0-----------0-----------------------------------0--------------------------------|
A|--------------------------------------------------4-----------4------------------------7/---------------------------------------------------------4-----------4-----------4--------------------------------|
E|--3-----------3-----------------------------------------------------------------------------------3-----------3--------------------------------------------------------------------------------------------|

Chorus x 2

    D                                             C#/D                                             G/D                                              D                     C#/D                      After Chorus
E|--------------------------------------------------------------------------------------------------------------------------------------------------------------------------------------------------|--3-----|-
B|--------3-----------3-----------3-----------3-----------3-----------3-----------3-----------3-----------3-----------3-----------3-----------3-----------3-----------3-----------3-----------3-----|--3-----|-
G|-----2-----2-----2-----2-----2-----2-----2-----2-----2-----2-----2-----2-----2-----2-----2-----2-----2-----2-----2-----2-----2-----2-----2-----2-----2-----2-----2-----2-----2-----2-----2-----2--|--2-----|-
D|--0-----------0-----------0-----------0-----------------------------------------------------------------------------------------------------------0-----------0-----------------------------------|--0-----|-
A|--------------------------------------------------4-----------4-----------4-----------4-----------------------------------------------------------------------------------4-----------4-----------|--4-----|-
E|--------------------------------------------------------------------------------------------------3-----------3-----------3-----------3-----------------------------------------------------------|--------|-

Verse 2 x 1

    D                                             C#/D                                             G/D                                              D                     C#/D             
E|-----------------------------------------------------------------------------------------------------------------------------------------------------------------------------------------------------------|
B|--------3-----------3-----------3-----------3-----------3-----------3-----------3-----------3-----------3-----------3-----------3-----------3-----------3-----------3-----------3-----------3--------------|
G|-----2-----2-----2-----2-----2-----2-----2-----2-----2-----2-----2-----2-----2-----2-----2-----2-----2-----2-----2-----2-----2-----2-----2-----2-----2-----2-----2-----2-----2-----2-----2-----2-----------|
D|--0-----------0-----------0-----------0-----------------------------------------------------------------------------------------------------------0-----------0--------------------------------------------|
A|--------------------------------------------------4-----------4-----------4-----------4-----------------------------------------------------------------------------------4-----------4--------------------|
E|--------------------------------------------------------------------------------------------------3-----------3-----------3-----------3--------------------------------------------------------------------|

Pre-Chorus

   G/D                      D                     C#/D                      D           E           G                       D                     C#/D                    C#/D
E|--------------------------------------------------------------------------------------------------------------------------------------------------------------------------0--------------------------------|
B|--------3-----------3-----------3-----------3-----------3-----------3-----------3-----------5-----------3-----------3-----------3-----------3-----------3-----------3-----3--------------------------------|
G|-----2-----2-----2-----2-----2-----2-----2-----2-----2-----2-----2-----2-----2-----2-----4-----4-----2-----2-----2-----2-----2-----2-----2-----2-----2-----2-----2-----2--2--------------------------------|
D|--------------------------0-----------0-----------------------------------0-----------------------------------------------0-----------0-----------------------------------0--------------------------------|
A|--------------------------------------------------4-----------4------------------------7/---------------------------------------------------------4-----------4-----------4--------------------------------|
E|--3-----------3-----------------------------------------------------------------------------------3-----------3--------------------------------------------------------------------------------------------|

Chorus x 2

    D                                             C#/D                                             G/D                                              D                     C#/D                    
E|--------------------------------------------------------------------------------------------------------------------------------------------------------------------------------------------------------|-
B|--------3-----------3-----------3-----------3-----------3-----------3-----------3-----------3-----------3-----------3-----------3-----------3-----------3-----------3-----------3-----------3-----------|-
G|-----2-----2-----2-----2-----2-----2-----2-----2-----2-----2-----2-----2-----2-----2-----2-----2-----2-----2-----2-----2-----2-----2-----2-----2-----2-----2-----2-----2-----2-----2-----2-----2--------|-
D|--0-----------0-----------0-----------0-----------------------------------------------------------------------------------------------------------0-----------0-----------------------------------------|-
A|--------------------------------------------------4-----------4-----------4-----------4-----------------------------------------------------------------------------------4-----------4-----------------|-
E|--------------------------------------------------------------------------------------------------3-----------3-----------3-----------3-----------------------------------------------------------------|-

Bridge

    G/D                      D                     C#/D                      D           E           G                       D                     C#/D                    C#/D
E|--------------------------------------------------------------------------------------------------------------------------------------------------------------------------0--------------------------------|
B|--------3-----------3-----------3-----------3-----------3-----------3-----------3-----------5-----------3-----------3-----------3-----------3-----------3-----------3-----3--------------------------------|
G|-----2-----2-----2-----2-----2-----2-----2-----2-----2-----2-----2-----2-----2-----2-----4-----4-----2-----2-----2-----2-----2-----2-----2-----2-----2-----2-----2-----2--2--------------------------------|
D|--------------------------0-----------0-----------------------------------0-----------------------------------------------0-----------0-----------------------------------0--------------------------------|
A|--------------------------------------------------4-----------4------------------------7/---------------------------------------------------------4-----------4-----------4--------------------------------|
E|--3-----------3-----------------------------------------------------------------------------------3-----------3--------------------------------------------------------------------------------------------|


Chorus x 1

    D                                             C#/D                                             G/D                                              D                     C#/D               
E|--0-----------------------------------------------0-----------------------------------------------0-----------------------------------------------0-----------------------0--------------------------------|
B|--3-----------------------------------------------3-----------------------------------------------3-----------------------------------------------3-----------------------3--------------------------------|
G|--2-----------------------------------------------2-----------------------------------------------2-----------------------------------------------2-----------------------2--------------------------------|
D|--0-----------------------------------------------0-----------------------------------------------0-----------------------------------------------0-----------------------0--------------------------------|
A|--------------------------------------------------4-----------------------------------------------------------------------------------------------------------------------4--------------------------------|
E|--------------------------------------------------------------------------------------------------3--------------------------------------------------------------------------------------------------------|


Chorus x 1

    D                                             C#/D                                             G/D                                              D                     C#/D               
E|--------------0-----------------------0-----------------------0-----------------------0-----------------------0-----------------------0-----------------------0-----------------------0--------------------|
B|--------3--------3-----------3-----------3--------------3--------3-----------3-----------3--------------3--------3-----------3-----------3--------------3--------3-----------3-----------3-----------------|
G|-----2-----2--------2-----------2-----------2--------2-----2--------2-----------2-----------2--------2-----2--------2-----------2-----------2--------2-----2--------2-----------2-----------2--------------|
D|--0--------------------0-----------0-----------0--------------------------------------------------------------------------------------------------0--------------------0-----------------------------------|
A|--------------------------------------------------4--------------------4-----------4-----------4--------------------------------------------------------------------------4--------4-----------4-----------|
E|--------------------------------------------------------------------------------------------------3--------------------3-----------3-----------3-----------------------------------------------------------|

Chorus x 1

    D                                             C#/D                                             G/D                                              D                     C#/D               
E|--0-----------------------------------------------0-----------------------------------------------0-----------------------------------------------0-----------------------0--------------------------------|
B|--3-----------------------------------------------3-----------------------------------------------3-----------------------------------------------3-----------------------3--------------------------------|
G|--2-----------------------------------------------2-----------------------------------------------2-----------------------------------------------2-----------------------2--------------------------------|
D|--0-----------------------------------------------0-----------------------------------------------0-----------------------------------------------0-----------------------0--------------------------------|
A|--------------------------------------------------4-----------------------------------------------------------------------------------------------------------------------4--------------------------------|
E|--------------------------------------------------------------------------------------------------3--------------------------------------------------------------------------------------------------------|

Chorus x 1

    D                                             C#/D                                             G/D                                              D                     C#/D                            
E|--------------0-----------------------0-----------------------0-----------------------0-----------------------0-----------------------0-----------------------0-----------------------0-------------------|
B|--------3--------3-----------3-----------3--------------3--------3-----------3-----------3--------------3--------3-----------3-----------3--------------3--------3-----------3-----------3----------------|
G|-----2-----2--------2-----------2-----------2--------2-----2--------2-----------2-----------2--------2-----2--------2-----------2-----------2--------2-----2--------2-----------2-----------2-------------|
D|--0--------------------0-----------0-----------0--------------------------------------------------------------------------------------------------0--------------------0----------------------------------|
A|--------------------------------------------------4--------------------4-----------4-----------4--------------------------------------------------------------------------4--------4-----------4----------|
E|--------------------------------------------------------------------------------------------------3--------------------3-----------3-----------3----------------------------------------------------------|

Outro x 1                                                                                           Start to Retard

    D                                             C#/D                                             G/D                                              D                     C#/D                  
E|--------------0-----------------------0-----------------------0-----------------------0-----------------------0-----------------------0-----------------------0-----------------------0--------------0----|
B|--------3--------3-----------3-----------3--------------3--------3-----------3-----------3--------------3--------3-----------3-----------3--------------3--------3-----------3-----------3-----------3----|
G|-----2-----2--------2-----------2-----------2--------2-----2--------2-----------2-----------2--------2-----2--------2-----------2-----------2--------2-----2--------2-----------2-----------2--------2----|
D|--0--------------------0-----------0-----------0--------------------------------------------------------------------------------------------------0--------------------0-----------------------------0----|
A|--------------------------------------------------4--------------------4-----------4-----------4--------------------------------------------------------------------------4--------4-----------4-----4----|
E|--------------------------------------------------------------------------------------------------3--------------------3-----------3-----------3----------------------------------------------------------|



Add more lines by placing cursor below and adding notes
tabs and chords, guitar tabs, music transcription, music technology, deep learning, music information retrieval, transcribe into tabs & chords, chordify, music renditions, songsterr, reverbnation, tabulature, bollywood chords, ultimate guitar, yousician, guitar lessons, acoustic guitar, electric guitar, guitar tuner, 911 tabs