Guitar Tabs for Lions Den

(/) Slide Up  (\) Slide Down  (h) Hammer On  (p) Pull Off  (b) Bend (r) Release (v) Vibrato (x) Muted

Tabs for Lions Den:

Listen to song to see for rhythm.

Intro:
E|--12-15-10-------------------------------------12-------------------------------------
B|-----------10-12-------10-12-10-12-15-15-------------15-12-------10-12-10-12----------
G|--------------------------------------------------12-------------------------12-9--12-
D|--------------------------------------------------------------------------------------
A|--------------------------------------------------------------------------------------
E|--------------------------------------------------------------------------------------

E|--12-15-10-------------------------------------12----------------10----------------------
B|-----------10-12-------15-12-10-12-15-15-------------15-12----------10-12-10-12----------
G|--------------------------------------------------12----------------------------12-9--12-
D|-----------------------------------------------------------------------------------------
A|-----------------------------------------------------------------------------------------
E|-----------------------------------------------------------------------------------------

Verse:

E|-----12----10----7-----7-----------12----10----7-----------------
B|--------------------------------------------------------8--10--12
G|-----------------------------------------------------------------
D|-----------------------------------------------------------------
A|-----------------------------------------------------------------
E|-----------------------------------------------------------------

PreChorus:

Repeat twice.

E|--12-------10-------7-----7--------12-------10----7--------------------
B|---------------------------------------------------------8h10----8-----
G|--------------------------------------------------------------------9--
D|-----------------------------------------------------------------------
A|-----------------------------------------------------------------------
E|-----------------------------------------------------------------------

Chorus:

E|--12-10-7--10-------------------12-15-17-19-17-19-17-15----12-10-7-----12-10-7--10----------------
B|--------------12-12-12-10-8--------------------------------------------------------12-12-12-10-8--
G|--------------------------------------------------------------------------------------------------
D|--------------------------------------------------------------------------------------------------
A|--------------------------------------------------------------------------------------------------
E|--------------------------------------------------------------------------------------------------

Solo after chorus

E|-----------------------------------------------------------------12-10-12-10-------------------------12-------------------------------
B|--------8--10-----8h10-8------------------------8h10-10/12-------------------12----15-12-10-12-15-15-------15-12-10-12-10-12----------
G|---7h9--------------------9---------------7h9-----------------------------------------------------------12-------------------12-9--12-
D|------------------------------------7h9-----------------------------------------------------------------------------------------------
A|--------------------------------------------------------------------------------------------------------------------------------------
E|--------------------------------------------------------------------------------------------------------------------------------------

Second Chorus

E|--12-10-7--------------
B|------------8h10-8-----
G|--------------------9--
D|-----------------------
A|-----------------------
E|-----------------------




tabs and chords, guitar tabs, music contests, music covers, songsterr, reverbnation, renditions, tabulature, bollywood chords, ultimate guitar, yousician, guitar lessons, torrins, fender, gibson, acoustic guitar, electric guitar, youtube covers, gootar, guitar tuner, A-Z tabs, 911 tabs