Bass Tabs for Linus And Lucy

(/) Slide Up  (\) Slide Down  (h) Hammer On  (p) Pull Off  (b) Bend (r) Release (v) Vibrato (x) Muted

Tabs for Song : 

Song lyrics here

G|--------------------------------------------------------------------------------------------------------------------------------------------------------------------------------------------
D|-----------------------------------------------2--------3-----0--4-----0--2--0--1--------------------------------1-----3--0--4--------------------6--------0-----0-----1-----0-----2--------
A|-----------------------7--5--5--3--2--0--2--------4--4-----4--------0--------------4--3--2--0-----------------------------------------------------------0-----0-----1-----1-----2--------2--
E|--0--4--5--6--7--8--9-----------------------2--------------------------------------------------4--0--2--4--0--2-----0-----------3--4--5--6--7--9-----9--------------------------------0-----

Song lyrics here
G|-----------------------------7--7--------7--7-----------------7--7--------------------------------------------------7--7--------9--9--------------------------8--8--------------
D|--------------------------------------------------3--------------------------------------------------------------------------------------3--------0-----------------------------
A|-----7--7--------7--7-----5-----------5--------------4--4--5-----------7--7-----7--7--------7--7--------7--7-----5-----------5--------------4--4-----3--3--6-----------7--7-----
E|--0--------7--0--------5-----------7-----------4--------------------0--------0--------7--0--------7--0--------5-----------5-----------4-----------------------------0--------7--

Paste any tab in acousterr's tab maker and we'll play it !!!
Now supports capo and sound effects for vibrato/pull-off/hammer/bends/mutes etc !!! Checkout help section
tabs and chords, guitar tabs, music transcription, music technology, deep learning, music information retrieval, transcribe into tabs & chords, chordify, music renditions, songsterr, reverbnation, tabulature, bollywood chords, ultimate guitar, yousician, guitar lessons, acoustic guitar, electric guitar, guitar tuner, 911 tabs