Guitar Tabs for Lines For Slide Guitar Exercise

(/) Slide Up  (\) Slide Down  (h) Hammer On  (p) Pull Off  (b) Bend (r) Release (v) Vibrato (x) Muted

Tabs for Song :   
BPM : 200


D|---0----0----3----3-----5-----5----0-----0--------0----0----3----3-----5-----5----0-----0-
B|---0----0----3----3-----5-----5----0-----0--------0----0----3----3-----5-----5----0-----0-
G|---0----0----3----3-----5-----5----0-----0--------0----0----3----3-----5-----5----0-----0-
D|---0----0----3----3-----5-----5----0-----0--------0----0----3----3-----5-----5----0-----0-
G|---0----0----3----3-----5-----5----0-----0--------0----0----3----3-----5-----5----0-----0-
D|---0----0----3----3-----5-----5----0-----0--------0----0----3----3-----5-----5----0-----0-

 
D|12-----12-----10-----10-----5-----5-----8-----0-----0-----3-----3-----5-----5-----0-------
B|12-----12-----10-----10-----5-----5-----8-----0-----0-----3-----3-----5-----5-----0-------
G|12-----12-----10-----10-----5-----5-----8-----0-----0-----3-----3-----5-----5-----0-------
D|12-----12-----10-----10-----5-----5-----8-----0-----0-----3-----3-----5-----5-----0-------
G|12-----12-----10-----10-----5-----5-----8-----0-----0-----3-----3-----5-----5-----0-------
D|12-----12-----10-----10-----5-----5-----8-----0-----0-----3-----3-----5-----5-----0-------


D|--7--7------10--10-----10--10-----7--7-----2--5-----7--7------10--10-----10--10-----7--7-----2--5
B|--7--7------10--10-----10--10-----7--7-----2--5-----7--7------10--10-----10--10-----7--7-----2--5
G|--7--7------10--10-----10--10-----7--7-----2--5-----7--7------10--10-----10--10-----7--7-----2--5
D|--7--7------10--10-----10--10-----7--7-----2--5-----7--7------10--10-----10--10-----7--7-----2--5
G|--7--7------10--10-----10--10-----7--7-----2--5-----7--7------10--10-----10--10-----7--7-----2--5
D|--7--7------10--10-----10--10-----7--7-----2--5-----7--7------10--10-----10--10-----7--7-----2--5
tabs and chords, guitar tabs, music transcription, music technology, deep learning, music information retrieval, transcribe into tabs & chords, chordify, music renditions, songsterr, reverbnation, tabulature, bollywood chords, ultimate guitar, yousician, guitar lessons, acoustic guitar, electric guitar, guitar tuner, 911 tabs