Guitar Tabs for Lilium - Sleep Inside

Tunning: D2 A2 D3 G3 A3 B3

B|--------------------------------------------------------------------------
A|--------------------------0-----1-----------1-----1-----------1-----1-----
G|--------0-----0--------------0-----------------2-----------------2--------
D|-----0-----0-----0-----0-----------0-----3-----------3-----3-----------3--
A|--------------------------0-----1-----------------------------------------
D|--5-----------------5-----------------3-----------------3-----------------

B|--------------------------------------------------------------------------
A|--------------------------------------------0-----0-----------0-----1-----
G|--------0-----0-----------0-----0--------------0-----------------0-----0--
D|-----1-----1-----1-----1-----1-----1-----0-----------0-----0--------------
A|--------------------------------------------------------------------------
D|--1-----------------1-----------------0-----------------0-----------------

B|--------------------------------------------------------------------------
A|--------1-----0-----1-----0-----------------1-----1-----1-----------------
G|-----0-----0-----0-----------0--0--------------2--------------2-----0-----
D|--0--------------------0-----------0-----3-----------3-----3-----3-----0--
A|--------------------------0-----1-----------------------------0-----------
D|--5-----------------5-----------------3-----------------3-----------------

B|--------------------------------------------------------------------------
A|--------1-----------1-----0-----1-----0-----0-----0-----------0-----1-----
G|--------------0--------------------------------0--------0--------0-----0--
D|-----1-----1-----1-----1-----1-----1-----0-----------0-----0--------------
A|--------------------------------------------------------------------------
D|--1-----------------1-----------------0-----------------0-----------------

B|--3-----------------3-----1-----------1--------------------------3-----1--
A|--------------------------------1--------------1--------------------------
G|--------0-----0--------------0-----------2--------2--------2--------2-----
D|-----0-----0-----0-----0-----------0--------3--------3--------3--------3--
A|--------------------------0-----1-----------------------------------------
D|--5-----------------5-----------------3-----------------3-----------------

B|-----------------------------1--------------------3--------------3--------
A|--1--------1-----------------------1--0--------0-----0--------0-----0-----
G|--------0-----0-----------0-----0-----------0--------------------------3--
D|-----1-----------1-----1-----------------0--0--------------0--------------
A|--------------------------------------------------------------------------
D|--1-----------------1-----------------0-----------------0-----------------

tabs and chords, guitar tabs, music transcription, music technology, deep learning, music information retrieval, transcribe into tabs & chords, chordify, music renditions, songsterr, reverbnation, tabulature, bollywood chords, ultimate guitar, yousician, guitar lessons, acoustic guitar, electric guitar, guitar tuner, 911 tabs