Guitar Tabs for Like An Animal

(/) Slide Up  (\) Slide Down  (h) Hammer On  (p) Pull Off  (b) Bend (r) Release (v) Vibrato (x) Muted

Tabs for Song : 
BPM : 200

Chorus "Trapped in this case like an animal..." 
E|-----------------------------------------------------------------------
B|-----------------------------------------------------------------------
G|-----------------------------------------------------------------------
D|-----------1-----------------------------------1-----1--3--4--3--1-----
A|--3--1--3-----3---1h3--3--------------3--1--3-----3-----------------3--
E|-----------------------------------------------------------------------
"I feel so wild and I feel so free..."   *Repeat x2*
E|-----------------------------------------------------------------------
B|-----------------------------------------------------------------------
G|-----------------------------------------------------------------------
D|-----------1-----------------------------------------------------------
A|--3--1--3-----3---1h3--3-----3--1------------------1h3---3p1---1h3--3--
E|-----------------------------------------------------------------------
Post-Chorus     *Play only once*
E|-----------------------------------------------------------
B|-----------------------------------------------------------
G|-----------------------------------------------------------
D|-----------------------------------------------------------
A|---1h3---3p1---1h3--3------------------1h3---3/6---6\3--3--
E|-----------------------------------------------------------

E|-----------------------------------------------------------
B|-----------------------------------------------------------
G|-----------------------------------------------------------
D|---------------------------------------4\3---3\1--1--------
A|---1h3---3p1---1h3--3--------------------------------3--3--
E|-----------------------------------------------------------

Verse     "In this jungle you never know..."
E|-----------------------------------------------------------------------------------------------
B|-----------------------------------------------------------------------------------------------
G|-----------------------------------------------------------------------------------------------
D|--------------------------------------------------------------------------------------1--1-----
A|--3--3--3--3--------3--3--3--3--1--1--3-----------------3--3--3--3--------3--3--3--3--------3--
E|-----------------------------------------------------------------------------------------------
         "So show your claws, and let 'em grow..."                                  "...animal!"
E|-----------------------------------------------------------------------------------------------
B|-----------------------------------------------------------------------------------------------
G|-----------------------------------------------------------------------------------------------
D|--------------------------------------------------------------------------------------4--3-----
A|--3--3--3--3--------3--3--3--3--1--1--3-----------------3--3--3--3--------------------------3--
E|-----------------------------------------------------------------------------------------------
      "Always fear what you might find..." *x11 on the 3 (to save you counting)*
E|--------------------------------------------------------------------------------------------------------
B|--------------------------------------------------------------------------------------------------------
G|--------------------------------------------------------------------------------------------------------
D|--------------------------------------------------------------------------------------------1--1--1-----
A|--3--3--3--3--3--3--3--3--3--3--3-----1--1--1--3--------3--3--3--3--3--3--3--3--3--3--3--------------3--
E|--------------------------------------------------------------------------------------------------------
     "So let it out, and give it time..."                                               "...by design"
E|--------------------------------------------------------------------------------------------
B|--------------------------------------------------------------------------------------------
G|--------------------------------------------------------------------------------------------
D|--------------------------------------------------------------------------------------4--3--
A|--3--3--3--3--3--3--3--3--3--3--3-----1--1--1--3--------3--3--3--3--------------------------
E|--------------------------------------------------------------------------------------------
Pre-chorus    "it's not easy, to live like me..."             *slide up to the 5 from 1*   "set me free..."
E|--------------------------------------------------------------------------------
B|--------------------------------------------------------------------------------
G|--------------------------------------------------------------------------------
D|--1------1h3--------------3------3h1--------------1------1h3--------------------
A|--------------1-----------------------3-----------------------1--------------5--
E|--------------------------------------------------------------------------------
Bridge  *repeat x2, after the drums play for a bit*
E|-----------------------------------------------------------------------------
B|-----------------------------------------------------------------------------
G|-----------------------------------------------------------------------------
D|-----------------------------------------------------------------------------
A|--1--1--1--3-----1--1--1--3-----------------------1--1--1--3-----1--1--1--3--
E|-----------------------------------------------------------------------------

E|-----------------------------------------------------------------------------
B|-----------------------------------------------------------------------------
G|-----------------------------------------------------------------------------
D|-----------------------------------------------------------------1--1--1-----
A|--1--1--1--3-----1--1--1--3-----------------------1--1--1--3--------------3--
E|-----------------------------------------------------------------------------
Bridge Cont. into solo *repeat through solo*
E|--------------------------------------------------------------------------------------------------
B|--------------------------------------------------------------------------------------------------
G|--------------------------------------------------------------------------------------------------
D|--------------------------------------------------------------------------------------------------
A|--1--1--1--3--3-----1--1--1--3--3--3--3--3--3--------1--1--1--3--3-----1--1--1--3--3--3--3--3--3--
E|--------------------------------------------------------------------------------------------------

E|--------------------------------------------------------------------------------------------------
B|--------------------------------------------------------------------------------------------------
G|--------------------------------------------------------------------------------------------------
D|-----------------------------------------------------------------------1--1--1--------------------
A|--1--1--1--3--3-----1--1--1--3--3--3--3--3--3--------1--1--1--3--3--------------3--3--3--3--3--3--
E|--------------------------------------------------------------------------------------------------

Use manual mode to free up cursor. Paste any tab in acousterr tab maker and we'll play it !!!
tabs and chords, guitar tabs, music transcription, music technology, deep learning, music information retrieval, transcribe into tabs & chords, chordify, music renditions, songsterr, reverbnation, tabulature, bollywood chords, ultimate guitar, yousician, guitar lessons, acoustic guitar, electric guitar, guitar tuner, 911 tabs