Guitar Tabs for Lights Down Low - Max Schneider

(/) Slide Up  (\) Slide Down  (h) Hammer On  (p) Pull Off  (b) Bend (r) Release (v) Vibrato (x) Muted

Tabs for Song : 

Song lyrics here
E|--------------------------------------------------------------------------------------------------
B|-----------8--------8--------------------------------------9--------9-----------------------------
G|--------------------------------------------------------------------------------------------------
D|--------------------------------------------------------------------------------------------------
A|--6-----------------6-----------------------------8-----------------8-----------------------------
E|--------------------------------------------------------------------------------------------------

E|--------------------------------------------------------------------------------------------------
B|-----------4--------4--------------------------------------4--------4-----------------------------
G|--------------------------------------------------------------------------------------------------
D|--------------------------------------------------------------------------------------------------
A|--3-----------------3-----------------------1-----3-----------------3-----------------------------
E|--------------------------------------------------------------------------------------------------


Song lyrics here
E|--------------------------------------------------------------------------------------------------
B|-----------4--------4--------------------------------------6--------6-----------------------------
G|--------------------------------------------------------------------------------------------------
D|--------------------------------------------------------------------------------------------------
A|--------------------------------------------------------------------------------------------------
E|--4-----------------4-----------------------------6-----------------6-----------------------------

E|--------------------------------------------------------------------------------------------------
B|-----------8--------8--------------------------------------8--------8-----------------------------
G|--------------------------------------------------------------------------------------------------
D|--------------------------------------------------------------------------------------------------
A|--------------------------------------------------------------------------------------------------
E|--8-----------------8-----------------------6-----8-----------------8-----------------------------

Paste any tab in acousterr's tab maker and we'll play it !!!
Now supports capo and sound effects for vibrato/pull-off/hammer/bends/mutes etc !!! Checkout help section

E|--------------------------------------------------------------------------------------------------
B|-----------9--------8--------------------------------------4--------3-----------------------------
G|-----------10-------8--------------------------------------5--------3-----------------------------
D|--------------------------------------------------------------------------------------------------
A|--8-----------------6-----------------------------3-----------------1-----------------------------
E|--------------------------------------------------------------------------------------------------

E|--------------------------------------------------------------------------------------------------
B|--9--------9--------8-----------------------------4--------4--------3-----------------------------
G|--10-------10-------8-----------------------------5--------5--------3-----------------------------
D|--------------------------------------------------------------------------------------------------
A|--8--------8--------6-----------------------------3--------3--------1-----------------------------
E|--------------------------------------------------------------------------------------------------
tabs and chords, guitar tabs, music transcription, music technology, deep learning, music information retrieval, transcribe into tabs & chords, chordify, music renditions, songsterr, reverbnation, tabulature, bollywood chords, ultimate guitar, yousician, guitar lessons, acoustic guitar, electric guitar, guitar tuner, 911 tabs