Bass Tabs for Light In The Cave Baslijn A2 En C

(/) Slide Up  (\) Slide Down  (h) Hammer On  (p) Pull Off  (b) Bend (r) Release (v) Vibrato (x) Muted

Tabs for Song : 


BASLIJN C
G|--------------------6-----------------------------------------------------6-----------7--------------9-----------------------
D|-----2-----------6--------------7--------------2-----------2-----------6--------------------------9--------------------------
A|--------------4-----------------------------2-----------------------4--------------5-----------7--------------9--------------
E|--0--------------------------5-----------0--------------0--------------------------------------------------------------------

BASLIJN A2

G|--------9--------9--------9--------9--------------7--------7--------7--------7--------
D|-----9--------9--------9--------9--------------7--------7--------7--------7-----------
A|--7--------7--------7--------7--------------5--------5--------5--------5--------------
E|--------------------------------------------------------------------------------------

G|--------9--------9--------9--------9--------------------------------------------
D|-----9--------9--------9--------9-----------------7--------7--------7--------7--
A|--7--------7--------7--------7-----------------7--------7--------7--------7-----
E|--------------------------------------------5--------5--------5--------5--------

G|--------11-------11-------11-------11-------7--------7--------7--------7--
D|-----11-------11-------11-------11-------7--------7--------7--------7-----
A|--9--------9--------9--------9--------5--------5--------5--------5--------
E|--------------------------------------------------------------------------

G|--------9--------9--------9--------9--
D|-----9--------9--------9--------9-----
A|--7--------7--------7--------7--------
E|--------------------------------------

Song lyrics here
G|--
D|--
A|--
E|--

Paste any tab in acousterr's tab maker and we'll play it !!!
Now supports capo and sound effects for vibrato/pull-off/hammer/bends/mutes etc !!! Checkout help section
tabs and chords, guitar tabs, music contests, music covers, songsterr, reverbnation, renditions, tabulature, bollywood chords, ultimate guitar, yousician, guitar lessons, torrins, fender, gibson, acoustic guitar, electric guitar, youtube covers, gootar, guitar tuner, A-Z tabs, 911 tabs