Lies That Bind - Daylight Dies - Guitar Tabs

Tuning: DADGBE / Drop D
BPM : 122

E|--------------------------------------------------------------------------------------------------
B|--------------------------------------------------------------------------------------------------
G|--------------------------------------------------------------------------------------------------
D|--------------------------------------------------------------------------------------------------
A|-----8--8--8--9-----0--0--0--1--1--1--1--1--1--1--1--1--1--1--1--1--1--1--1--1--1--1--1--1--1--1--
D|-----8--8--8--9-----0--0--0--1--1--1--1--1--1--1--1--1--1--1--1--1--1--1--1--1--1--1--1--1--1--1--

E|--------------------------------------------------------
B|--------------------------------------------------------
G|--------------------------------------------------------
D|--------------------------12----------12-------9-----8--
A|-----8--8--8--9-----0--0--12----------------------------
D|-----8--8--8--9-----0--0--12----------------------------

E|--------------------------------------------------------------------------------------------------------------
B|--------------------------------------------------------------------------------------------------------------
G|--------------------------------------------------------------------------------------------------------------
D|--------------------------------------------------------------------------------------------------------------
A|-----0--0--1--1--1--1--1--1--1--1--1--1--1--1--1--1--1--1--1--1--1--1--1--1--1--1--1--1--1--1--1--1--1--1--1--
D|-----0--0--1--1--1--1--1--1--1--1--1--1--1--1--1--1--1--1--1--1--1--1--1--1--1--1--1--1--1--1--1--1--1--1--1--

E|-----------------------------------------------------------
B|-----------------------------------------------------------
G|-----------------------------------------------------------
D|--------------------------12----------12-------9-----9-----
A|-----8--8--8--9-----0--0--12-------------------------------
D|-----8--8--8--9-----0--0--12-------------------------------

Clean x4
E|--------------------------------------------------------------------------
B|--------------------------------------------------------------------------
G|--------------------------------------------------------------------------
D|-----9--12----12-12----12-12----12-9-----9--11----11-11----11-11----11-9--
A|--------------------------------------------------------------------------
D|--------------------------------------------------------------------------

Clean x3
E|--------------------------------------------------------------------------
B|--------------------------------------------------------------------------
G|--------------------------------------------------------------------------
D|-----6--8-----8--8-----8--8-----8--6-----6--9-----9--9-----9--9-----9--6--
A|--------------------------------------------------------------------------
D|--------------------------------------------------------------------------

E|-----------------------------------------
B|-----------------------------------------
G|-----------------------------------------
D|-----------------------------------------
A|--------------------4--4--4--4--3--3--3--
D|-----4--4--4--4--4--4--4--4--4--3--3--3--

Both below x2
E|--------------------------------------------------
B|--------------------------------------------------
G|--------------------------------------------------
D|--------------------------------------------------
A|------6h-8/-9\8-----6--6--------------------------
D|--------------------------------------------------
|
E|-----------------------------------------------------------------------------------
B|-----------------------------------------------------------------------------------
G|-----------------------------------------------------------------------------------
D|-----------------------------------------------------------------------------------
A|--------------------------------------------------------------------------4--4--4--
D|-----8-----------------4-----6--6--6--6--4--4--4--4--9--9--9--9--8--------4--4--4--

x2
E|-----------------------------------------------------------------------------------------------------------
B|-----------------------------------------------------------------------------------------------------------
G|-----------------------------------------------------------------------------------------------------------
D|-----8--------8--8--8--------8--8--8-----8--8--6--6--6--9--------9--9--9--------9--9--9-----9--9--6--6--6--
A|-----------------------------------------------------------------------------------------------------------
D|-----------------------------------------------------------------------------------------------------------

Both below x2
E|-----------------------------------------------------------------------------
B|--------------------------6--6-----6--------6--6--------------6--6-----6--7--
G|-----8--------6--------8--------------------------7--7--8--------------------
D|-----------------------------------------------------------------------------
A|-----------------------------------------------------------------------------
D|-----------------------------------------------------------------------------
|                                                                                           Second time 4 eights
E|--------------------------------------------------------------------------------------------------------------
B|-----9--9--11-11-11-11-11-11-11-11-11-11-11-11-11-11-11-11-11\9--9--9--9--9--9--9--9--------------------------
G|--------------------------------------------------------------------------------------9--9--9--9--8-----8--8--
D|--------------------------------------------------------------------------------------------------------------
A|--------------------------------------------------------------------------------------------------------------
D|--------------------------------------------------------------------------------------------------------------

Both below x2
E|-----------------------------------------------------------------------------------------------
B|-----------9--7-----------------7--5-----------------4-----------4-----------4--4-----5--4-----
G|-----6--8-----------------6--8--------------------5-----5-----5-----6-----6-----------------6--
D|-----------------------------------------------------------------------------------------------
A|-----------------------------------------------------------------------------------------------
D|-----------------------------------------------------------------------------------------------
|
E|-----------------------------------------------------------------------------------------------
B|-----------9--7-----------------7--5-----------------7-----------7-----------5-----4--5--4-----
G|-----6--8-----------------6--8--------------------8-----8-----8-----8-----6-----6-----------6--
D|-----------------------------------------------------------------------------------------------
A|-----------------------------------------------------------------------------------------------
D|-----------------------------------------------------------------------------------------------

E|-----------------------------------------------------------------------------
B|-----------------------------------------------------------------------------
G|--------------------------------------------------6--------6--------6-----6--
D|-----4-----4--4-----------------------------4--6--6-----------7--------9-----
A|--------------------------5--5--------7--------------------------------------
D|-----------------------------------------------------------------------------

E|-----------------------------------------------------------------------------------------------------
B|-----9-----------------9-----------------------------------------------------------------------------
G|--------11-10----10-11----11-10----------------------------------------------------------------------
D|--------------11----------------11-11-9--12-11-9-----9--11/12\11-11-9-----------------------------9--
A|--------------------------------------------------11-------------------11-9--8--9--8--9--11-9--11----
D|-----------------------------------------------------------------------------------------------------

E|--------------------------------------
B|--------------------------------------
G|--------------------------------------
D|-----11-9--------------7--6-----------
A|--------------------------------7--7--
D|--------------------------------------

E|-----------------------------------------------------------------
B|-----------------------------------------------------------------
G|-----------------------------------------------------------------
D|--------------------------------7--6--------7--6-----------------
A|-----7--------9--9--------------------------------------7--9-----
D|-----------------------------------------------------------------

E|--------------------------------------------------------------
B|--------------------------------------------------------------
G|--------------------6--4--6--7-----4--6------6/13----------11-
D|--------------4--7--------------------------------------14----
A|-----4--4-----------------------------------------------------
D|--------------------------------------------------------------

E|--------------------------------------------------------------------------------------------------------
B|-----------------------------------------------------5-----7--5-----------------------------------------
G|--------------------------------4-----4--6--4--7--6-----7--------7--6--7--6--4--6-----4-----------------
D|-----4--5--4--5--4--5--7--5--7-----7-----------------------------------------------7-----4--5--4--5-----
A|-----------------------------------------------------------------------------------------------------6--
D|--------------------------------------------------------------------------------------------------------

E|--------------------------------------------------------------------
B|-----4--6--7--6-----4--4--4-----4--4--4-----4--4--------4-----------
G|--------------------------------------------------4--------4--3-----
D|--------------------------------------------------------------------
A|--------------------------------------------------------------------
D|--------------------------------------------------------------------

E|--------------------------------------------------------
B|--------------------------------------------------------
G|--------------------------------------------------------
D|--------------------------------------------------------
A|--------------------------------------------------------
D|-----4-----6--6--6--6--4--4--4--4--9--9--9--9--8--------

E|-----------------------------------------------------------------10-10-10-10-------------------------
B|-----9--9--11-11b12r------------11-11-------11-------9-----11-11-------------12-12-12-12-11-11-11-11-
G|-----------------------------------------11----11-11-------------------------------------------------
D|-----------------------------------------------------------------------------------------------------
A|-----------------------------------------------------------------------------------------------------
D|-----------------------------------------------------------------------------------------------------

E|-----------------------------------------------------------------------------------------------------	
B|-----9--9--11-11-11-11-11-11-11-11-12-12-12-12-12-12-12-12-12/14-14----14----------------------------
G|--------------------------------------------------------------------13----13----13----11----9--9--9--
D|-----------------------------------------------------------------------------------------------------
A|-----------------------------------------------------------------------------------------------------
D|-----------------------------------------------------------------------------------------------------

E|--------------------------11-------------------------------------------------
B|-----12-12-14-14-------------------------------------------------------------
G|--------------------------------------11-11-9--9--11-11-9--9--11-11-9--9--9--
D|-----------------------------------------------------------------------------
A|-----------------------------------------------------------------------------
D|-----------------------------------------------------------------------------

E|--------------------------------------------------------------------------------------------
B|-----9--9--11-11b12r------------11-11-------11-------9-----11-------------------------------
G|-----------------------------------------11----11-11----------10b11r---10b11----------------
D|--------------------------------------------------------------------------------12-12-12----
A|--------------------------------------------------------------------------------------------
D|--------------------------------------------------------------------------------------------

E|--------------------------------------------------------------13----------------------------------------------------
B|-----------------11-11-12-12-12-12-12-12-12-12-12/14-------14-------15-16-16/9------9/11\9-----11\9-----------------
G|-----10-10-13-13----------------------------------------13-------------------------------------------8--9--9--9--9--
D|--------------------------------------------------------------------------------------------------------------------
A|--------------------------------------------------------------------------------------------------------------------
D|--------------------------------------------------------------------------------------------------------------------

E|-----------------------------------------------------------------------------------------------------------
B|-----9--9--11----------------------------------------11-11-12-12-11-12-14----11-12-12----11-12-14----12-12-
G|--------------10b11r---10b11r------------10-10-13-13-------------------------------------------------------
D|-----------------------------13-13-13----------------------------------------------------------------------
A|-----------------------------------------------------------------------------------------------------------
D|-----------------------------------------------------------------------------------------------------------

E|-----13-13-------------------------------------------------------------------------------------
B|-----------14-14-16----11-11-12----11-9--11-----9h11p-9h------9---7h-9p-7h------7---5h-7p-5h---
G|--------------------------------------------------------11----------------9-----------------7--
D|-----------------------------------------------------------------------------------------------
A|-----------------------------------------------------------------------------------------------
D|-----------------------------------------------------------------------------------------------

E|-----------------------------------------------
B|-----------------7--7--------9--9--11----------
G|-----8--8--9--9-----------------------10b11r---
D|-----------------------------------------------
A|-----------------------------------------------
D|-----------------------------------------------

About Maureen Koech - Maureen Koech is notable for her role in the KTN's Lies that Bind . She is notable Maureen Koech was born in Nairobi, Kenya . She went to Strathmore University between 2009-2013 . She decided to venture into acting . Maureen began her acting career at the Alliance Fran├žaise . She starred in Lies that Bind, a Kenyan TV drama series that won the award for best TV series at the 2012 Kalasha film and television awards . Maureen Koech's music is influenced by genre(s) - afropop r&b.

tabs and chords, guitar tabs, music transcription, music technology, deep learning, music information retrieval, transcribe into tabs & chords, chordify, music renditions, songsterr, reverbnation, tabulature, bollywood chords, ultimate guitar, yousician, guitar lessons, acoustic guitar, electric guitar, guitar tuner, 911 tabs