Liden - Ingenting - Guitar Tabs

Track 4
    
                                                                                                                                                                                                                                                                                                                                                                                                                                                                                                                                                                                                 
E|--0----------------------|
B|--1----------------------|
G|--0----------------------|
D|--2----------------------|
A|--3----------------------|
E|-------------------------|

    
                                                                                                                                                                                                                                                                                                                                                                                                                                                                                                                                                                                                                                                                                                                                                                                                                                                                                                                                                                                                                                                                                                                                                                                              
E|--0----------------------|3----------------------|
B|--1----------------------|3----------------------|
G|--2----------------------|0----------------------|
D|--2----------------------|0----------------------|
A|--0----------------------|2----------------------|
E|-------------------------|3----------------------|

    
                                                                                                                                                                                                                                                                                                                                                                                                                                                                                                                                                                                                 
E|--0----------------------|
B|--1----------------------|
G|--0----------------------|
D|--2----------------------|
A|--3----------------------|
E|-------------------------|

    
                                                                                                                                                                                                                                                                                                                                                                                                                                                                                                                                                                                                                                                                                                                                                                                                                                                                                                                                                                                                                                                                                                                                                                                              
E|--0----------------------|3----------------------|
B|--1----------------------|3----------------------|
G|--2----------------------|0----------------------|
D|--2----------------------|0----------------------|
A|--0----------------------|2----------------------|
E|-------------------------|3----------------------|

    
                                                                                                                                                                                                                                                                                                                                                                                                                                                                                                                                                                                                 
E|--0----------------------|
B|--1----------------------|
G|--0----------------------|
D|--2----------------------|
A|--3----------------------|
E|-------------------------|

    
                                                                                                                                                                                                                                                                                                                                                                                                                                                                                                                                                                                                                                                                                                                                                                                                                                                                                                                                                                                                                                                                                                                                                                                              
E|--0----------------------|3----------------------|
B|--1----------------------|3----------------------|
G|--2----------------------|0----------------------|
D|--2----------------------|0----------------------|
A|--0----------------------|2----------------------|
E|-------------------------|3----------------------|

    
                                                                                                                                                                                                                                                                                                                                                                                                                                                                                                                                                                                                 
E|--0----------------------|
B|--1----------------------|
G|--0----------------------|
D|--2----------------------|
A|--3----------------------|
E|-------------------------|

    
                                                                                                                                                                                                                                                                                                                                                                                                                                                                                                                                                                                                                                                                                                                                                                                                                                                                                                                                                                                                                                                                                                                                                                                              
E|--0----------------------|3----------------------|
B|--1----------------------|3----------------------|
G|--2----------------------|0----------------------|
D|--2----------------------|0----------------------|
A|--0----------------------|2----------------------|
E|-------------------------|3----------------------|

    
                                                                                                                                                                                                                                                                                                                                                                                                                                                                                                                                                                                                 
E|--------0--0--------0--0-|
B|--------1--1--------1--1-|
G|--2--2--2--2--2--2--2--2-|
D|--2--2--2--2--2--2--2--2-|
A|--0--0--0--0--0--0--0--0-|
E|-------------------------|

    
                                                                                                                                                                                                                                                                                                                                                                                                                                                                                                                                                                                                                                                                                                                                                                                                                                                                                                                                                                                                                                                                                                                                                                                              
E|--------1--1--------1--1-|------3--3--------3--3-|
B|--------1--1--------1--1-|------3--3--------3--3-|
G|--------2--2--------2--2-|------0--0--------0--0-|
D|--3--3--3--3--3--3--3--3-|0--0--0--0--0--0--0--0-|
A|--3--3--3--3--3--3--3--3-|2--2--2--2--2--2--2--2-|
E|--1--1--1--1--1--1--1--1-|3--3--3--3--3--3--3--3-|

    
                                                                                                                                                                                                                                                                                                                                                                                                                                                                                                                                                                                                                                                                                                                                                                                                                                                                                                                                                                                                                                                                                                                                                                                              
E|--------3--3--------3--3-|------0--0--------0--0-|
B|--------3--3--------3--3-|------1--1--------1--1-|
G|--------0--0--------0--0-|2--2--2--2--2--2--2--2-|
D|--0--0--0--0--0--0--0--0-|2--2--2--2--2--2--2--2-|
A|--2--2--2--2--2--2--2--2-|0--0--0--0--0--0--0--0-|
E|--3--3--3--3--3--3--3--3-|-----------------------|

    
                                                                                                                                                                                                                                                                                                                                                                                                                                                                                                                                                                                                                                                                                                                                                                                                                                                                                                                                                                                                                                                                                                                                                                                              
E|--------1--1--------1--1-|------3--3--------3--3-|
B|--------1--1--------1--1-|------3--3--------3--3-|
G|--------2--2--------2--2-|------0--0--------0--0-|
D|--3--3--3--3--3--3--3--3-|0--0--0--0--0--0--0--0-|
A|--3--3--3--3--3--3--3--3-|2--2--2--2--2--2--2--2-|
E|--1--1--1--1--1--1--1--1-|3--3--3--3--3--3--3--3-|

    
                                                                                                                                                                                                                                                                                                                                                                                                                                                                                                                                                                                                                                                                                                                                                                                                                                                                                                                                                                                                                                                                                                                                                                                              
E|--------3--3--------3--3-|------0--0--------0--0-|
B|--------3--3--------3--3-|------1--1--------1--1-|
G|--------0--0--------0--0-|2--2--2--2--2--2--2--2-|
D|--0--0--0--0--0--0--0--0-|2--2--2--2--2--2--2--2-|
A|--2--2--2--2--2--2--2--2-|0--0--0--0--0--0--0--0-|
E|--3--3--3--3--3--3--3--3-|-----------------------|

    
                                                                                                                                                                                                                                                                                                                                                                                                                                                                                                                                                                                                                                                                                                                                                                                                                                                                                                                                                                                                                                                                                                                                                                                              
E|--------1--1--------1--1-|------3--3--------3--3-|
B|--------1--1--------1--1-|------3--3--------3--3-|
G|--------2--2--------2--2-|------0--0--------0--0-|
D|--3--3--3--3--3--3--3--3-|0--0--0--0--0--0--0--0-|
A|--3--3--3--3--3--3--3--3-|2--2--2--2--2--2--2--2-|
E|--1--1--1--1--1--1--1--1-|3--3--3--3--3--3--3--3-|

    
                                                                                                                                                                                                                                                                                                                                                                                                                                                                                                                                                                                                                                                                                                                                                                                                                                                                                                                                                                                                                                                                                                                                                                                              
E|--------3--3--------3--3-|------0--0--------0--0-|
B|--------3--3--------3--3-|------1--1--------1--1-|
G|--------0--0--------0--0-|2--2--2--2--2--2--2--2-|
D|--0--0--0--0--0--0--0--0-|2--2--2--2--2--2--2--2-|
A|--2--2--2--2--2--2--2--2-|0--0--0--0--0--0--0--0-|
E|--3--3--3--3--3--3--3--3-|-----------------------|

    
                                                                                                                                                                                                                                                                                                                                                                                                                                                                                                                                                                                                                                                                                                                                                                                                                                                                                                                                                                                                                                                                                                                                                                                              
E|--------1--1--------1--1-|------3--3--------3--3-|
B|--------1--1--------1--1-|------3--3--------3--3-|
G|--------2--2--------2--2-|------0--0--------0--0-|
D|--3--3--3--3--3--3--3--3-|0--0--0--0--0--0--0--0-|
A|--3--3--3--3--3--3--3--3-|2--2--2--2--2--2--2--2-|
E|--1--1--1--1--1--1--1--1-|3--3--3--3--3--3--3--3-|

    
                                                                                                                                                                                                                                                                                                                                                                                                                                                                                                                                                                                                                                                                                                                                                                                                                                                                                                                                                                                                                                                                                                                                                                                              
E|--------3--3--------3--3-|0-----------0--0-------|
B|--------3--3--------3--3-|1-----------1--1-------|
G|--------0--0--------0--0-|0-----0-----0--0--0----|
D|--0--0--0--0--0--0--0--0-|2-----2-----2--2--2----|
A|--2--2--2--2--2--2--2--2-|3-----3-----------3----|
E|--3--3--3--3--3--3--3--3-|-----------------------|

    
                                                                                                                                                                                                                                                                                                                                                                                                                                                                                                                                                                                                                                                                                                                                                                                                                                                                                                                                                                                                                                                                                                                                                                                              
E|--0-----------0--0-------|3-----------3--3-------|
B|--1-----------1--1-------|3-----------3--3-------|
G|--2-----2-----2--2--2----|0-----------0--0-------|
D|--2-----2-----------2----|0-----0-----0--0--0----|
A|--0-----0-----------0----|2-----2-----------2----|
E|-------------------------|3-----3-----------3----|

    
                                                                                                                                                                                                                                                                                                                                                                                                                                                                                                                                                                                                                                                                                                                                                                                                                                                                                                                                                                                                                                                                                                                                                                                              
E|--3-----------3--3-------|0-----------0--0-------|
B|--3-----------3--3-------|1-----------1--1-------|
G|--0-----------0--0-------|0-----0-----0--0--0----|
D|--0-----0-----0--0--0----|2-----2-----2--2--2----|
A|--2-----2-----------2----|3-----3-----------3----|
E|--3-----3-----------3----|-----------------------|

    
                                                                                                                                                                                                                                                                                                                                                                                                                                                                                                                                                                                                                                                                                                                                                                                                                                                                                                                                                                                                                                                                                                                                                                                              
E|--0-----------0--0-------|3-----------3--3-------|
B|--1-----------1--1-------|3-----------3--3-------|
G|--2-----2-----2--2--2----|0-----------0--0-------|
D|--2-----2-----------2----|0-----0-----0--0--0----|
A|--0-----0-----------0----|2-----2-----------2----|
E|-------------------------|3-----3-----------3----|

    
                                                                                                                                                                                                                                                                                                                                                                                                                                                                                                                                                                                                                                                                                                                                                                                                                                                                                                                                                                                                                                                                                                                                                                                              
E|--3-----------3--3-------|0-----------0--0-------|
B|--3-----------3--3-------|1-----------1--1-------|
G|--0-----------0--0-------|0-----0-----0--0--0----|
D|--0-----0-----0--0--0----|2-----2-----2--2--2----|
A|--2-----2-----------2----|3-----3-----------3----|
E|--3-----3-----------3----|-----------------------|

    
                                                                                                                                                                                                                                                                                                                                                                                                                                                                                                                                                                                                                                                                                                                                                                                                                                                                                                                                                                                                                                                                                                                                                                                              
E|--0-----------0--0-------|3-----------3--3-------|
B|--1-----------1--1-------|3-----------3--3-------|
G|--2-----2-----2--2--2----|0-----------0--0-------|
D|--2-----2-----------2----|0-----0-----0--0--0----|
A|--0-----0-----------0----|2-----2-----------2----|
E|-------------------------|3-----3-----------3----|
tabs and chords, guitar tabs, music transcription, music technology, deep learning, music information retrieval, transcribe into tabs & chords, chordify, music renditions, songsterr, reverbnation, tabulature, bollywood chords, ultimate guitar, yousician, guitar lessons, acoustic guitar, electric guitar, guitar tuner, 911 tabs