Guitar Tabs for Let You Love Me - Rita Ora Intro

(/) Slide Up  (\) Slide Down  (h) Hammer On  (p) Pull Off  (b) Bend (r) Release (v) Vibrato (x) Muted

Rita Ora - Let You Love Me

capo at 3rd fret

Song lyrics here
E|-----------------------------------------------------------------------------------------------
B|-----------------------------------------------------------------------------------------------
G|-----0--------0--------0--------0--------0-----------0--------0--------------------------------
D|-----------------------------------------------------------------------4--------4--------4-----
A|--------------------3--------3--------3--------------------------------------------------------
E|--0--------0--------------------------------------3--------3--------2--------2--------2--------

Song lyrics here
E|-----------------------------------------------------------------------------------------------
B|-----------------------------------------------------------------------------------------------
G|-----0--------0--------0--------0--------0-----------0--------0--------------------------------
D|-----------------------------------------------------------------------4--------4--------4-----
A|--------------------3--------3--------3--------------------------------------------------------
E|--0--------0--------------------------------------3--------3--------2--------2--------2--------


Paste any tab in acousterr's tab maker and we'll play it !!!
Now supports capo and sound effects for vibrato/pull-off/hammer/bends/mutes etc !!! Checkout help section
tabs and chords, guitar tabs, music transcription, music technology, deep learning, music information retrieval, transcribe into tabs & chords, chordify, music renditions, songsterr, reverbnation, tabulature, bollywood chords, ultimate guitar, yousician, guitar lessons, acoustic guitar, electric guitar, guitar tuner, 911 tabs