Guitar Tabs for Let It Snow - Dean Martin Tabs

(/) Slide Up  (\) Slide Down  (h) Hammer On  (p) Pull Off  (b) Bend (r) Release (v) Vibrato (x) Muted

Tabs for Song : Let it Snow

the whether outside is frightful, 
E|-----------------------------------
B|---------6\8--8--6--5--------------
G|-----------------------7--5--------
D|--5--5-----------------------5-----
A|-----------------------------------
E|-----------------------------------

but the fire is so delightful
E|--------------------------------
B|--------------------------------
G|------5h7--5--7--5--7--5--4-----
D|-----------------------------5--
A|--------------------------------
E|--------------------------------

and since we have no place to go, 
E|--------5--5--3---------------5\7--5--3-----
B|-----------------6--5--3--------------------
G|--------------------------------------------
D|--5--5--------------------------------------
A|--------------------------------------------
E|--------------------------------------------

let it snow, let it snow
E|-----3--------------------
B|--------6--5-----5--3-----
G|-----------------------5--
D|--------------------------
A|--------------------------
E|--------------------------

let it snow
E|-----------------------------------------
B|-----------------------------------------
G|-----4--7--5-----5--4--------------4-----
D|-----------------------7-----5--7--------
A|-----------------------------------------
E|-----------------------------------------

man it doesn't show signs of stopping
E|-----------------------------------
B|--------------5---------6\8--------
G|--4--5---5\7-----7--4--------7-----
D|-----------------------------------
A|-----------------------------------
E|-----------------------------------

and i brought me some corn of popping
E|--------------------------------------
B|-----8--7--5--7--5---------6\8--------
G|--------------------7--4--------7-----
D|--------------------------------------
A|--------------------------------------
E|--------------------------------------




Now supports capo and sound effects for vibrato/pull-off/hammer/bends/mutes etc !!! Checkout help section
tabs and chords, guitar tabs, music contests, music covers, songsterr, reverbnation, renditions, tabulature, bollywood chords, ultimate guitar, yousician, guitar lessons, torrins, fender, gibson, acoustic guitar, electric guitar, youtube covers, gootar, guitar tuner, A-Z tabs, 911 tabs