Guitar Tabs for Let Her Go

(h) Hammer On  (p) Pull Off 
Fmaj7 could also be played as F.

Let Her Go (Capo at 7th fret)
BPM : 235

Intro
E|-----0-------
B|--3-----3--1-
G|-------------
D|-------------
A|-------------
E|-------------

Fmaj7                                G            Am                G
E|-------------------0------------------0-----------------------0---------------0-------
B|-------1-----------1-----------1---3-----3--1--------1--------1---3--------3-----3--1-
G|--0h2--------2-----------2----------------------0h2--------2------------0-------------
D|-------3--------3-----------3------------0-----------2--------2------0-----------0----
A|-------------------------------------------------0------0-----------------------------
E|---1------1-----------1------------3------------------------------3--------3----------

Fmaj7                              G           Am                       G
E|----------------------3p-----------------0-------------------------------0-------
B|-------1-----------1-------------1h3------------1-----------1-----1---3-----3--1-
G|--0h2--------2---------------2------------------------2--------------------------
D|-------3--------3---------3---------------------2--------2--------2---------0----
A|--------------------------------------0------0-----0-----------0-----------------
E|---1------1-----------1-----------3-----------------------------------3----------


Fmaj7                                G            Am                G
E|-------------------0------------------0-----------------------0---------------0-------
B|-------1-----------1-----------1---3-----3--1--------1--------1---3--------3-----3--1-
G|--0h2--------2-----------2----------------------0h2--------2------------0-------------
D|-------3--------3-----------3------------0-----------2--------2------0-----------0----
A|-------------------------------------------------0------0-----------------------------
E|---1------1-----------1------------3------------------------------3--------3----------

Fmaj7                              G           Am                       G
E|----------------------3p-----------------0-------------------------------0-------
B|-------1-----------1-------------1h3------------1-----------1-----1---3-----3--1-
G|--0h2--------2---------------2------------------------2--------------------------
D|-------3--------3---------3---------------------2--------2--------2---------0----
A|--------------------------------------0------0-----0-----------0-----------------
E|---1------1-----------1-----------3-----------------------------------3----------

Chorus
Fmaj7                 C                  G                  Am
E|---------------------------------------------------------------------------
B|-----1-----------1-----1-----------1------3-----------3------1-----------1-
G|-----------2-----------------0------------------0------------------2-------
D|-----3--------3--------2--------2---------0--------0---------2--------2----
A|--------------------3-----3-------------------------------0-----0----------
E|--1-----1------------------------------3-----3-----------------------------

Fmaj7                 C                  G                  
E|--------------------------------------------------------
B|-----1-----------1-----1-----------1------3-----------3-
G|-----------2-----------------0------------------0-------
D|-----3--------3--------2--------2---------0--------0----
A|--------------------3-----3-----------------------------
E|--1-----1------------------------------3-----3----------

Fmaj7                 C                  G                  Am
E|---------------------------------------------------------------------------
B|-----1-----------1-----1-----------1------3-----------3------1-----------1-
G|-----------2-----------------0------------------0------------------2-------
D|-----3--------3--------2--------2---------0--------0---------2--------2----
A|--------------------3-----3-------------------------------0-----0----------
E|--1-----1------------------------------3-----3-----------------------------

Fmaj7                 C                  G                  
E|--------------------------------------------------------
B|-----1-----------1-----1-----------1------3-----------3-
G|-----------2-----------------0------------------0-------
D|-----3--------3--------2--------2---------0--------0----
A|--------------------3-----3-----------------------------
E|--1-----1------------------------------3-----3----------

Verses: D DUDU
Fmaj7 / G / Em / Am / Fmaj7 / G / Gsus4: 1 Down strum 

The other choruses: D DUDU
Fmaj7 / C / G / Am / Fmaj7 / C / G / Gsus4: 1 Down strum



tabs and chords, guitar tabs, music transcription, music technology, deep learning, music information retrieval, transcribe into tabs & chords, chordify, music renditions, songsterr, reverbnation, tabulature, bollywood chords, ultimate guitar, yousician, guitar lessons, acoustic guitar, electric guitar, guitar tuner, 911 tabs