Guitar Tabs for Lazer Pony 3

(/) Slide Up  (\) Slide Down  (h) Hammer On  (p) Pull Off  (b) Bend (r) Release (v) Vibrato (x) Muted

Tabs for Song : 
BPM : 200

Song lyrics here
E|-----------------------------------------------------------------------------------------------------------------------------------------------------------------------------------------------------------------------------------------------------------------
B|-----------------------------------------------------------------------------------------------------------------------------------------------------------------------------------------------------------------------------------------------------------------
G|-----------------------------------------------------------------------------------------------------------------------------------------------------------------------------------------------------------------------------------------------------------------
D|--------3--------------7--------------2--------------0--------2--------3--------------7--------------2--------------0--------2--------3--------------7--------------2--------------0--------2--------3--------------7--------------2--------------10-------2-----
A|-----3-----3--------7-----7--------2-----2--------0--------2--------3-----3--------7-----7--------2-----2--------0--------2--------3--------------7-----7--------2-----2--------0--------2--------3-----3--------7-----7--------2-----2--------10-------2--------
D|--3-----------5--7-----------3--2-----------2--0--------2--------3-----------5--7-----------3--2-----------2--0--------2--------3--------10-9--7-----------3--2-----------2--0--------2--------3-----------5--7-----------3--2-----------2--10-------2--------3--

E|-----------------------------------------------------------------------------------------------------------------------------------------------------------------------
B|-----------------------------------------------------------------------------------------------------------------------------------------------------------------------
G|-----------------------------------------------------------------------------------------------------------------------------------------------------------------------
D|-----------------------------------------------------------------------------------------------------------------------------------------------------------------------
A|-----------------------------------------------------------------------------------------------------------------------------------------------------------------------
D|--3--3--0--2--2--5--7--7--7--5--3--5--3--2--3--3--0--2--2--10-7--7--10-9--7--9--7--5--3--3--0--2--2--5--7--7--7--5--3--5--3--2--3--3--0--2--2--10-7--10-9--7--9--7--5--

E|--------------------------------------------------------------------------------------------------------------------------------------------------------------------------------------------------------------------------------------------------------------------------------------------------------
B|--------------------------------------------------------------------------------------------------------------------------------------------------------------------------------------------------------------------------------------------------------------------------------------------------------
G|--------------------------------------------------------------------------------------------------------------------------------------------------------------------------------------------------------------------------------------------------------------------------------------------------------
D|--3--3--3--15-------0--0--0--12-------2--2--2--14-------------------------------------------------------------------------------------------------------------------------------------------------------------------------------------------------------------------------------------------------------
A|--3--3--3--15-------0--0--0--12-------2--2--2--14-------------------------------------------------------------------------------------------------------------------------------------------------------------------------------------------------------------------------------------------------------
D|--3--3--3--15-------0--0--0--12-------2--2--2--14----8--8--8--7--7--7--------3--3--3--15-------0--0--0--12-------2--2--2--14----8--8--8--7--7--7--------3--3--3--15-------0--0--0--17-------2--2--2--14----8--8--8--7--7--7--------3--3--3--15-------0--0--0--12-------2--2--2--14----8--8--8--7--7--7--

E|--------------------------------------------------------------------------------------------------------------------------------------------------------------------------------------------------------------------------------------------------------------------------------------------------------------------------------------------
B|-----------------------------------------------------------------------------------------------------------------------------------------------------------------------------------------------------------------------------------------------------------------------------------------------------------------------------------------------
G|--------------------------------------------------------------------------------------------------------------------------------------------------------------------------------------2--3--2-----------------------2--------------------------------------------------------------------------------------------------------------------------
D|--3--3--3--3--3--3--2--0--0--0--0--0--0-----------------------------------------3--3--3--3--3--3--5--3--2--0--0--0--0--0--0-----------------------------------------3--3--3--3--3--3-----------2--0--0--0--0--0--0-----2-----------------------------------------3--3--3--3--3--3--2--0--0--0--0--0--0-----------------------------------------
A|-----------------------------------------3--0--0--0--0--0--0--1--1--1--3--3--3-----------------------------------------------3--0--0--0--0--0--0--1--1--1--3--3--3--------------------------------------------------------3--0--0--0--0--0--0--1--1--1--3--3--3-----------------------------------------3--1--0--0--0--0--0--0--------------3--
D|--------------------------------------------------------------------------------------------------------------------------------------------------------------------------------------------------------------------------------------------------------------------------------------------------------------------------------5--3--2--0-----

Song lyrics here
E|--
B|--
G|--
D|--
A|--
D|--

Paste any tab in acousterr's tab maker and we'll play it !!!
Now supports capo and sound effects for vibrato/pull-off/hammer/bends/mutes etc !!! Checkout help section
tabs and chords, guitar tabs, music transcription, music technology, deep learning, music information retrieval, transcribe into tabs & chords, chordify, music renditions, songsterr, reverbnation, tabulature, bollywood chords, ultimate guitar, yousician, guitar lessons, acoustic guitar, electric guitar, guitar tuner, 911 tabs