Guitar Tabs for Last Christmas

(/) Slide Up  (\) Slide Down  (h) Hammer On  (p) Pull Off  (b) Bend (r) Release (v) Vibrato (x) Muted

Tabs for Song : 
BPM : 120


Song lyrics here 
E|--0--0--------0--0--2--------------0--0--2--------------------------2--0--------2--3--2--0--------
B|--------3--------------3-----0--0-----------3-----0--2--3--2--0--------------0-----------------0--
G|-----------2--------------------------------------------------------------------------------------
D|--------------------------------------------------------------------------------------------------
A|--------------------------------------------------------------------------------------------------
E|--------------------------------------------------------------------------------------------------
   Last Christmas I gave you my heart but the very next day you gave it away This year to save me from tears I'll
   
E|-----------------------------------0--0--------0--0--2--------------0--0--2--------------------------
B|--2--3--2--2-----3--2--------------------3--------------3-----0--0-----------3-----0--2--3--2--0-----
G|--------------------------2-----------------2--------------------------------------------------------
D|-----------------------------------------------------------------------------------------------------
A|-----------------------------------------------------------------------------------------------------
E|-----------------------------------------------------------------------------------------------------
    give it to someone special. Last christmas I gave you my heart but the very next day you gave it away
    
E|--2--0--------2--3--2--0-----------------------------------------5--------------------0-----------
B|-----------0-----------------0--2--3--2--2-----3--2--------------------------0--2--3-----3--2--0--
G|--------------------------------------------------------2-----2-----2-----2-----------------------
D|--------------------------------------------------------------------------------------------------
A|--------------------------------------------------------------------------------------------------
E|--------------------------------------------------------------------------------------------------
   this year to save me from tears I'll give it to someone special
E|-----5--2--------------7--3--0--------------0--0--------5-----2-----0-----0--0--0--0--------
B|-----------3--0-----------------2-----------------3--3-----------------3--------------3--3--
G|-----------------0-----------------2--------------------------------------------------------
D|--------------------------------------------------------------------------------------------
A|--------------------------------------------------------------------------------------------
E|--------------------------------------------------------------------------------------------
                                             Once bitten and twice shy. I keep my distance but
                                             
E|--7--7--2-----0-----------2-----------0--2--2--0--------0-----------------------------------------------
B|--------------------3--------0--3-----------------0--3-----3-----3--3--2--2-----2--3--2--2--0-----------
G|--------------------------------------------------------------------------------------------------2--2--
D|--------------------------------------------------------------------------------------------------------
A|--------------------------------------------------------------------------------------------------------
E|--------------------------------------------------------------------------------------------------------
  you still catch my eye. Tell me baby do you recognise me? Well it's been a year it doesn't surprise me
  
E|--0--------------------------------------0--------------0-----------------------2--0-----0-----0--2--
B|-----3--2--2--3-----3--2--3--2--2--2--3-----3--2-----3-----2-----3--2--3--2--3--------3--------------
G|-----------------2-----------------------------------------------------------------------------------
D|-----------------------------------------------------------------------------------------------------
A|-----------------------------------------------------------------------------------------------------
E|-----------------------------------------------------------------------------------------------------
  (Happy christmas) I wrapped it up and sent it with a note saying i love you i meant it. Now i know what a
  
E|-----0-----0-----------------------------------------------
B|--------3--------3--2--3--3--2--3-----2--3--2--3--2--3-----
G|--------------------------------------------------------2--
D|-----------------------------------------------------------
A|-----------------------------------------------------------
E|-----------------------------------------------------------
  fool I've been but if you kissed me now I know you'd fool me again



tabs and chords, guitar tabs, music transcription, music technology, deep learning, music information retrieval, transcribe into tabs & chords, chordify, music renditions, songsterr, reverbnation, tabulature, bollywood chords, ultimate guitar, yousician, guitar lessons, acoustic guitar, electric guitar, guitar tuner, 911 tabs