Bass Tabs for Landslide (dixie Chicks Version)


Verse 1 ("I took my love and I took it down...")
G|-----------------------------------------------------------]
D|--17-16-14-16----17-16-14-16----5--4--2--4-----5--4--2--4--
A|-----------------------------------------------------------
E|-----------------------------------------------------------

Verse 2 ("Oh, mirror in the sky...") 
G|-----------------------------------------------------------------------------------
D|--5-----4-----2--2--4--4-----5-----4-----2-----4--4-----5-----4-----2-----4--4-----
A|-----5-----5--------------------5-----5-----2--------------5-----5-----2-----------
E|-----------------------------------------------------------------------------------

G|-----------------------------------------------------------------------------------
D|--5-----4-----2--2--4--4-----5-----4-----2-----4--4-----5-----4-----2--2-----------
A|-----5-----5--------------------5-----5-----2--------------5-----5--------4--------
E|-----------------------------------------------------------------------------------

CHORUS ("Well I've been afraid of changing cause I...")
G|-----------------------------------------------------------
D|-----------------------------2--4-----5-----4-----2--2-----
A|--5-----4-----2-----2-----5--------------5-----5--------4--
E|-----5-----5-----2-----------------------------------------

G|-----------------------------------------------------------
D|-----------------------------2--4--5-----4-----2--2--4-----
A|--5-----4-----2-----2-----5-----------5-----5--------------
E|-----5-----5-----2-----------------------------------------

Verse 3 (Mandolin solo)
G|-----------------------------------------------------
D|--5-----4-----2-----2--4-----5-----4-----2-----2--4--
A|-----5-----5-----2--------------5-----5-----2--------
E|-----------------------------------------------------

G|-----------------------------------------------------
D|--5-----4-----2-----2--2--4--5-----4-----2--2--------
A|-----5-----5-----2--------------5-----5--------4-----
E|-----------------------------------------------------


CHORUS
G|-----------------------------------------------------------
D|-----------------------------2--4-----5-----4-----2--2-----
A|--5-----4-----2-----2-----5--------------5-----5--------4--
E|-----5-----5-----2-----------------------------------------

G|-----------------------------------------------------------
D|-----------------------------2--4--5-----4-----2--2--4-----
A|--5-----4-----2-----2-----5-----------5-----5--------------
E|-----5-----5-----2-----------------------------------------


Drop Out Chorus:

G|-----------------------------------------------------------------------------
D|--5-----4-----2-----2--2--4-----5--4-----2-----2--4-----5--4--2-----2--2--4--
A|-----5-----5-----2--------------------------2--------------------2-----------
E|-----------------------------------------------------------------------------

G|-----------------------------------------------------------
D|--5-----4-----2-----2--2--4-----5-----4-----2-----2--4-----
A|-----5-----5-----2-----------------5-----5-----2-----------
E|-----------------------------------------------------------

^Repeat until last phrase (~4x)

Last phrase:
"Oh the landslide will bring you down..."
G|-----------------
D|--5-----4-----2--
A|-----------------
E|-----------------

tabs and chords, guitar tabs, music transcription, music technology, deep learning, music information retrieval, transcribe into tabs & chords, chordify, music renditions, songsterr, reverbnation, tabulature, bollywood chords, ultimate guitar, yousician, guitar lessons, acoustic guitar, electric guitar, guitar tuner, 911 tabs