Guitar Tabs for Lament (lead Guitar)

(/) Slide Up  (\) Slide Down  (h) Hammer On  (p) Pull Off  (b) Bend (r) Release (v) Vibrato (x) Muted

Capo On 1st

Intro: *Overdrive Guitar*
E|--------------------------------------------------------------------------------------------------------------
B|--------2-----------2-----------2-----------2--------------2-----------2-----------------2-----------------2--
G|-----------3-----------3-----------1--------------1-----------3--------------3--------3--------3--------1-----
D|--3--------------3--------3--------------3-----------5--------------5------------1h4---------------1h3--------
A|--------------------------------------------------------------------------------------------------------------
E|--------------------------------------------------------------------------------------------------------------

E|--------------------------------------------------------------------------------------------------------------1--
B|--------2-----------2-----------2-----------2--------------2-----------2-----------------2-----------------2--2--
G|-----------3-----------3-----------1--------------1-----------3--------------3--------3--------3--------1-----3--
D|--3--------------3--------3--------------3-----------5--------------5------------1h4---------------1h3--------3--
A|--------------------------------------------------------------------------------------------------------------1--
E|--------------------------------------------------------------------------------------------------------------1--

Verse 1: *Clean Guitar*
Oh what the hell happens now,
I've never felt more alone,
I'm so sorry my friends,
I've let you down and now I'm here on my own,
I'd give anything,
Just to make this whole thing right,
I'd sacrifice it all,
To end it all on this night,
E|--1-----1-----1-----1--1--1-----1-----1-----1--1--1-----1-----1-----1--1--1-----1-----1-----1--1--
B|--2-----2-----2-----2--2--2-----2-----2-----2--2--2-----2-----2-----2--2--2-----2-----2-----2--2--
G|--3-----1-----3-----3--1--3-----1-----3-----3--1--3-----1-----3-----3--1--3-----1-----3-----3--1--
D|--3-----3-----5-----4--3--3-----3-----5-----4--3--3-----3-----5-----4--3--3-----3-----5-----4--3--
A|--1-----1-----1-----1--1--1-----1-----1-----1--1--1-----1-----1-----1--1--1-----1-----1-----1--1--
E|--1-----1-----1-----1--1--1-----1-----1-----1--1--1-----1-----1-----1--1--1-----1-----1-----1--1--

Chorus 1: *Overdrive Guitar*
They called me a savior,
But now I'm nothing at all,
E|--------------------------------------------------------------------------------------------------
B|--------------------------------------------------------------------------------------------------
G|--8--8--8--6--6--6--------8--8--8--6--6--6--------8--8--8--6--6--6--------8--8--8--6--6--6--------
D|--------------------6--6--------------------7--7--------------------8--8--------------------9--9--
A|--------------------------------------------------------------------------------------------------
E|--------------------------------------------------------------------------------------------------
Nothing at all,
E|--------------------------------------------------------------------------------------
B|--------------------------------------------------------------------------------------
G|-----------8--8--8--6--6--8--8--8--8--8--8--8--8---8b9--6-----6--6--6--8--6--6--8--6--
D|--8--8--8-----------------------------------------------------------------------------
A|--------------------------------------------------------------------------------------
E|--------------------------------------------------------------------------------------

Verse 2: *OVerdrive Guitar*
I never guessed it would end this way,
But then again my entire world changed today,
E|-----------------------------------------------------------------------------------------------
B|-----------------------------------------------------------------------------------------------
G|--------------6-----------------6------8b9--6-----------------6-----------------6------8b9--6--
D|--6--6-----6--------6--6-----6--------------------6--6-----6--------6--6-----6-----------------
A|--------8-----------------8-----------------------------8-----------------8--------------------
E|-----------------------------------------------------------------------------------------------
They all said I was a hero to them,
But I'm nobody now,
And tonight they'll all look up at the skies,
And wonder how,
E|-----------------------------------------------------------------------------------------------
B|-----------------------------------------------------------------------------------------------
G|--------------6-----------------6------8b9--6-----------------6-----------------6------8b9--6--
D|--6--6-----6--------6--6-----6--------------------6--6-----6--------6--6-----6-----------------
A|--------8-----------------8-----------------------------8-----------------8--------------------
E|-----------------------------------------------------------------------------------------------

Chorus 2: *Overdrive Guitar* Let Last Note Ring Out
Their lives will be saved tonight,
E|--------------------------------------------------------------------------------------------------
B|--------------------------------------------------------------------------------------------------
G|--8--8--8--6--6--6--------8--8--8--6--6--6--------8--8--8--6--6--6--------8--8--8--6--6--6--------
D|--------------------6--6--------------------7--7--------------------8--8--------------------9--9--
A|--------------------------------------------------------------------------------------------------
E|--------------------------------------------------------------------------------------------------
Ohhhhh,
E|--------------------------------------------------------------------------------------
B|--------------------------------------------------------------------------------------
G|-----------8--8--8--6--6--8--8--8--8--8--8--8--8---8b9--6-----6--6--6--8--6--6--8--6--
D|--8--8--8-----------------------------------------------------------------------------
A|--------------------------------------------------------------------------------------
E|--------------------------------------------------------------------------------------
The innocent blood on my hands,
Will never get a second chance,
E|--------------------------------------------------------------------------------------------------
B|--------------------------------------------------------------------------------------------------
G|--8--8--8--6--6--6--------8--8--8--6--6--6--------8--8--8--6--6--6--------8--8--8--6--6--6--------
D|--------------------6--6--------------------7--7--------------------8--8--------------------9--9--
A|--------------------------------------------------------------------------------------------------
E|--------------------------------------------------------------------------------------------------
And it's all my fault,
E|--------------------------------------------------------------------------------------
B|--------------------------------------------------------------------------------------
G|-----------8--8--8--6--6--8--8--8--8--8--8--8--8---8b9--6-----6--6--6--8--6--6--8--6--
D|--8--8--8-----------------------------------------------------------------------------
A|--------------------------------------------------------------------------------------
E|--------------------------------------------------------------------------------------

Outro: *Clean Guitar* Last Chord Only Plays At "Alone" And Rings Out
Oh it's all mine,
All my fault,
Mine and mine alone,
Oh how I lament these memories,
Alone...
E|--1--
B|--2--
G|--1--
D|--3--
A|--4--
E|--1--



tabs and chords, guitar tabs, music transcription, music technology, deep learning, music information retrieval, transcribe into tabs & chords, chordify, music renditions, songsterr, reverbnation, tabulature, bollywood chords, ultimate guitar, yousician, guitar lessons, acoustic guitar, electric guitar, guitar tuner, 911 tabs