Guitar Tabs for Lambiyaan Si Judaiyaan - Raabta Tabs

(/) Slide Up  (\) Slide Down  (h) Hammer On  (p) Pull Off  (b) Bend (r) Release (v) Vibrato (x) Muted

Tabs for Song : Lambiyaan Si Judaiyaan

Sajda tera kar na sakoon Toh bandagi kya bandagi
E|--------------------------------------------------------------
B|--------------------------------------------------------------
G|--7--7--7--9---9/11-12-12-12-12-11-7--7--9---9/11-6--7--6--4--
D|--------------------------------------------------------------
A|--------------------------------------------------------------
E|--------------------------------------------------------------

Tere bina jeena pade Toh zindagi kya zindagi
E|--------------------------------------------------------------------
B|--------------------------------------------------------------------
G|--7--7--7--9---9/11-12-12-12-12-11-9--7--7--7--9---9/11-6--7--6--4--
D|--------------------------------------------------------------------
A|--------------------------------------------------------------------
E|--------------------------------------------------------------------

Kya rang laaya Dil ka lagaana
E|-----------------------------------------------------
B|-----------------------------------------5-----------
G|--7--7--6--4--6--6--7--6--6--4-----4--6-----7--4--6--
D|--------------------------------7--------------------
A|-----------------------------------------------------
E|-----------------------------------------------------

Kya rang laaya Dil ka lagaana
E|--------------------------------------------
B|-----------------------7--------------------
G|--7--7--6--4--6--6--7-----6--6--4-----4--6--
D|-----------------------------------7--------
A|--------------------------------------------
E|--------------------------------------------

Goonje hawaa mein Bichhde dilaan diyaan duhaiyaan
E|-----------------------------------------------------
B|--8--8--7--5--7--8--5--5--7---5/8--7--5--------------
G|-----------------------------------------7---7\6--6--
D|-----------------------------------------------------
A|-----------------------------------------------------
E|-----------------------------------------------------

Vey badi lambiyaan si judaiyaan
E|-----------------------------------
B|-----------------------------------
G|--6--6--4--------4---6/7--6--4--4--
D|-----------7--7--------------------
A|-----------------------------------
E|-----------------------------------
tabs and chords, guitar tabs, music transcription, music technology, deep learning, music information retrieval, transcribe into tabs & chords, chordify, music renditions, songsterr, reverbnation, tabulature, bollywood chords, ultimate guitar, yousician, guitar lessons, acoustic guitar, electric guitar, guitar tuner, 911 tabs