Guitar Tabs for Lag Jaa Gale

(/) Slide Up  (\) Slide Down  (h) Hammer On  (p) Pull Off  (b) Bend (r) Release (v) Vibrato (x) Muted

Tabs for Song : 

Song lyrics here
E|--0--9--7--9-----9---7h9--9--9-----9--7-----7--10-9--7-----------
B|-----------------------------------------10-------------9--7-----
G|--------------------------------------------------------------9--
D|-----------------------------------------------------------------
A|-----------------------------------------------------------------
E|-----------------------------------------------------------------

E|---------------------------------------9/12-12-12--9h10----9--9--7-----
B|-----7-----7--7--7--9--7--------------------------------------------10-
G|--9-----------------------9--9-----9-----------------------------------
D|-----------------------------------------------------------------------
A|-----------------------------------------------------------------------
E|-----------------------------------------------------------------------

E|-----9--7--9-----10-9--
B|-----------------------
G|--9--------------------
D|-----------------------
A|-----------------------
E|-----------------------

Song lyrics here
E|--
B|--
G|--
D|--
A|--
E|--

Paste any tab in acousterr's tab maker and we'll play it !!!
Now supports capo and sound effects for vibrato/pull-off/hammer/bends/mutes etc !!! Checkout help section
tabs and chords, guitar tabs, music transcription, music technology, deep learning, music information retrieval, transcribe into tabs & chords, chordify, music renditions, songsterr, reverbnation, tabulature, bollywood chords, ultimate guitar, yousician, guitar lessons, acoustic guitar, electric guitar, guitar tuner, 911 tabs