Bass Tabs for La Vida Es Bella

(/) Slide Up  (\) Slide Down  (h) Hammer On  (p) Pull Off  (b) Bend (r) Release (v) Vibrato (x) Muted

Tabs for Song : 
BPM : 200

Song lyrics here 
G|-----------------------------------------------------------------------------------------------------------------
D|--0--------0--------0--------0--------0--------0--------2--------2--------2-----------------0--------0--0--2-----
A|-----0--0-----0--0-----0--0-----0--0-----0--0-----0--0-----0--0-----0--0-----0--0--0--0--4-----0--0-----------2--
E|-----------------------------------------------------------------------------------------------------------------

G|-----------------------------------------------------------------------------------------------------------------
D|--------------2-----0-----------2-----------------------------------------0--------0--------2--------2--------2--
A|-----------2-----2-----2-----2-----------2-----------2--4--2--0--------------0--0-----0--0-----0--0-----0--0-----
E|--2--2--0-----------------0--------1--2-----4--2--2--------------3--2--0-----------------------------------------

G|--------------------------------------------------------------------------------------------------------------
D|-----------------0--------0--0--2-----------------2-----0-----------2-----------------------------------------
A|--0--0--0--0--4-----0--0-----------2-----------2-----2-----2-----2-----------2-----------2--4--2--0-----------
E|--------------------------------------2--2--0-----------------0--------1--2-----4--2--2--------------3--2--0--

G|-----------------------------------------------------------------------------------------------------------
D|--0--------0--------2--------2--------2--------------------------0--------0--------0--0--2-----------------
A|-----0--0-----0--0-----0--0-----0--0-----0--0--0--0--0--------------0--0-----0--0-----------2--------------
E|--------------------------------------------------------3--3--3--------------------------------2--2--0--0--

G|-----------------------------------------------------------------------------------------------------------
D|--------------------------------------------------------------0--------------------------------------2--2--
A|-----2--------------------2--2-----------2--2--2--2--0--0--0-----0--0--------------2--2--4--------0--------
E|--3-----2--2--0--0--0--1--------2--2--2--------------------------------0--0--0--1-----------4--4-----------

G|-----------------------------------------------------------------------------------------------------------
D|-----0--------0--------2--------2--------2-----------------0--------0--0--2--------------------------------
A|--0-----0--0-----0--0-----0--0-----0--0-----0--0--0--0--0-----0--0-----------2-----------------2-----------
E|--------------------------------------------------------------------------------2--2--0--0--3-----2--2--0--

G|-----------------------------------------------------------------------------------------------------
D|-----------------------------------------------0--------0--------2--------2--------2-----------------
A|--------------------------2--4--2--0--------------0--0-----0--0-----0--0-----0--0-----0--0--0--0--0--
E|--0--0--3--2--2--2--2--2--------------3--2--0--------------------------------------------------------

G|--------------------------------------------------------------------------------------------------------
D|--0--------0--0--2-----------------------------------------------------------4--0-----------------------
A|-----0--0-----------2-----------------2-----------------------------------2--------2-----------------2--
E|-----------------------2--2--0--0--3-----2--2--0--0--0--3--2--2--2--2--2--------------2--2--0--0--3-----

G|-----------------------------------------------------------------------------------------------------------
D|--------------------------------------------------0--------0--------------------------0--------0-----------
A|-----------------------------------2--0--------------0--0-----0--0-----0--0-----0--4-----0--0-----0--0-----
E|--2--2--0--0--0--3--2--2--2--2--2--------3--2--0--------------------0--------0--------------------------0--

G|-----------------------------------------------------------------------------------------------------
D|-----------------0--------0--------------------------0--------0--------------------------0--------0--
A|--0--0-----0--4-----0--0-----0--0-----0--0-----0--4-----0--0-----0--0-----0--0-----0--4-----0--0-----
E|--------2--------------------------0--------2--------------------------0--------2--------------------

G|-----------------------------
D|--------------------------0--
A|--0--0-----0--0-----0--4-----
E|--------0--------2-----------


G|--
D|--
A|--
E|--

Song lyrics here 
G|--
D|--
A|--
E|--

Use manual mode to free up cursor. Paste any tab in acousterr tab maker and we'll play it !!!

tabs and chords, guitar tabs, music transcription, music technology, deep learning, music information retrieval, transcribe into tabs & chords, chordify, music renditions, songsterr, reverbnation, tabulature, bollywood chords, ultimate guitar, yousician, guitar lessons, acoustic guitar, electric guitar, guitar tuner, 911 tabs