Guitar Tabs for La Mujer Perfecta

(/) Slide Up  (\) Slide Down  (h) Hammer On  (p) Pull Off  (b) Bend (r) Release (v) Vibrato (x) Muted

Tabs for Song : 
BPM :86

Song lyrics here 
E|--5--------7--4--------7---7p4------------4h5--4--
B|-----5--------------------------3-----------------
G|--------------------------------------------------
D|--------------------------------------------------
A|--------------------------------------------------
E|--------------------------------------------------

Song lyrics here 
E|--
B|--
G|--
D|--
A|--
E|--

Use manual mode to free up cursor. Paste any tab in acousterr tab maker and we'll play it !!!

Guitar Tabs for La Mujer Perfecta






E|--0-----------4-----------------2--------------0--
B|--2-----------5-----------------3--------------0--
G|--2-----------6-----------------4--------------1--
D|--2-----------6-----------------4--------------2--
A|--0-----------4-----------------2--------------2--
E|-----------------------------------------------0--


E|--
B|--
G|--
D|--
A|--
E|--

tabs and chords, guitar tabs, music transcription, music technology, deep learning, music information retrieval, transcribe into tabs & chords, chordify, music renditions, songsterr, reverbnation, tabulature, bollywood chords, ultimate guitar, yousician, guitar lessons, acoustic guitar, electric guitar, guitar tuner, 911 tabs