Guitar Tabs for La Llorona

Canción:  La Llorona
Arrangement: Edgar Esparza

Ay, de mí, llorona, llorona de azul celeste (N.A)

      Ay, de mí,       llorona,      llorona de azul celeste
E|-----------0-----------------------------------2--------
B|--------0--------------1-----------0-----------0--------
G|-----0-----------------2-----------0-----------2--------
D|-----------------------2-----------2-----------1--------
A|-----------------------0-----------------------2--------
E|--0--------------------------------0-----------0--------

    Y aunque la vida me cueste, llorona, no dejaré de quererte                No dejaré de quererte
E|-----0--0-----0--0-----2--2-----2--2-----0--0-----0--0-----2--2-----2--2-----0--0-----0--0--2--2--2--2--
B|-----0--0-----0--0-----3--3-----3--3-----1--1-----1--1-----0--0-----0--0-----1--1-----1--1--0--0--0--0--
G|-----0--0-----0--0-----2--2--2-----------0--0-----0--0-----2--2-----2--2-----0--0-----0--0--2--2--2--2--
D|--------------------0--------------------------2-----------------1-----------------2--------1--1--1--1--
A|-----------2--------------------------3-----------------2-----------------3-----------------2--2--2--2--
E|--0-----------------------------------------------------------------------------------------0--0--0--0--
    
    Mim                 Lam    Mim                      Si7      
    Me subí al pino más alto, llorona, a ver si te divisaba      
    Mim                 Lam    Mim                      Si7      
    Me subí al pino más alto, llorona, a ver si te divisaba          
                                                                 
    Mim                 Re     Do                      Si7       
    Como el pino era tierno, llorona, al verme llorar, lloraba    
    Mim                 Re     Do                      Si7       
    Como el pino era tierno, llorona, al verme llorar, lloraba   
    
    (Requinto)
E|--------------3--7--5--3--------------------2--5--3--2-----------------------------------------------
B|--5--4--5--7--------------7--5--3--2--3--5--------------5--3-----------3--5---5h-7p5--4--7--7--5--4--
G|--------------------------------------------------------------5--4--5--------------------------------
D|-----------------------------------------------------------------------------------------------------
A|-----------------------------------------------------------------------------------------------------
E|-----------------------------------------------------------------------------------------------------

E|--------------3--7--5--3--------------------2--5--3--2-----------------------------------------------------------
B|--5--4--5--7--------------7--5--3--2--3--5--------------5--3-----------3--5---5h-7p5--4--7--7--5--4--5--4--5--5--
G|--------------------------------------------------------------5--4--5--------------------------------------------
D|-----------------------------------------------------------------------------------------------------------------
A|-----------------------------------------------------------------------------------------------------------------
E|-----------------------------------------------------------------------------------------------------------------
    
    Mim                 Lam     Mim                      Si7
    La pena y la que no es pena, llorona, todo es pena para mí
    Mim                 Lam     Mim                      Si7
    La pena y la que no es pena, llorona, todo es pena para mí
    
    Mim                 Re     Do                      Si7
    Ayer lloraba por verte, llorona, hoy lloro porque te vi
    Mim                 Re     Do                      Si7
    Ayer lloraba por verte, llorona, hoy lloro porque te vi
    
    Mim                 Lam     Mim                      Si7
    Ay, de mí, llorona, llorona, llorona de azul celeste
    Mim                 Lam     Mim                      Si7
    Ay, de mí, llorona, llorona, llorona de azul celeste
    Mim                 Re     Do                      Si7
    Y aunque la vida me cueste, llorona, no dejaré de quererte
    
    Fa#m                Mi     Re                      Do#7
    Y aunque la vida me cueste, llorona, no dejaré de quererte
    Re          Do#7
    No dejaré de quererte
    Re          Do#7
    No dejaré de quererte
    
    Fam       Sim     Fam      Sim
   
   Fam 
    Ay, ay, ay







































tabs and chords, guitar tabs, music transcription, music technology, deep learning, music information retrieval, transcribe into tabs & chords, chordify, music renditions, songsterr, reverbnation, tabulature, bollywood chords, ultimate guitar, yousician, guitar lessons, acoustic guitar, electric guitar, guitar tuner, 911 tabs