Guitar Tabs for La Condesa Del Sobrarbe

(/) Slide Up  (\) Slide Down  (h) Hammer On  (p) Pull Off  (b) Bend (r) Release (v) Vibrato

Tabs for Song : 

Song lyrics here
E|--5--5--5--------5--6--5--3--------0--1--3--5-----------------------5--5--5-----5--6--5--3--3--3--6-----
B|--------------------------------------------------3-----------------------------------------------------
G|--------------------------------------------------------------------------------------------------------
D|--------------------------------------------------------------------------------------------------------
A|--------------------------------------------------------------------------------------------------------
E|--------------------------------------------------------------------------------------------------------

E|--5-----------------------5--10----
B|--------2--------------------------
G|--------------2--------------------
D|--------------------2--------------
A|-----------------------------------
E|-----------------------------------

E|--10-8--6--5--3--6--5--5-----3-----1-----------3-----3--5--6--5--3--1-----3-----5--------------------------
B|--------------------------------------------3-----------------------------------------2--------------------
G|--------------------------------------------------------------------------------------------2--------------
D|--------------------------------------------------------------------------------------------------2--------
A|-----------------------------------------------------------------------------------------------------------
E|-----------------------------------------------------------------------------------------------------------

E|--5--3-----3--5--6--5--3--1-----0-----------------------1--
B|--------------------------------------3-----------3--------
G|--------------------------------------------2--------------
D|-----------------------------------------------------------
A|-----------------------------------------------------------
E|-----------------------------------------------------------

Song lyrics here
E|--
B|--
G|--
D|--
A|--
E|--

Now supports capo and sound effects for vibrato/pull-off/hammer/bends etc !!! Checkout help section
tabs and chords, guitar tabs, music transcription, music technology, deep learning, music information retrieval, transcribe into tabs & chords, chordify, music renditions, songsterr, reverbnation, tabulature, bollywood chords, ultimate guitar, yousician, guitar lessons, acoustic guitar, electric guitar, guitar tuner, 911 tabs