Bass Tabs for Ksmb - Sex Noll Två

Jag har bara skrivit det såsom jag tycker låter bra, och efter ackord på ultimate-guitar.com.



INTRO (x2)

G|--5--5--5--5--2--2--2--2--------------2--2--2--2--
D|--------------------------3--3--3--3--------------
A|--------------------------------------------------
E|--------------------------------------------------

G|--2--2--2--2-------------------------------------
D|--------------3--3--3--3-------------------------
A|--------------------------7--7--7--7--0--0--0--0-
E|-------------------------------------------------



VERS 1 (x4)
   ligger...    i min... helt vanlig   dag...       
G|--2--2--2--2--------------------------2--2--2--2--
D|--------------3--3--3--3--------------------------
A|--------------------------7--7--7--7--------------
E|--------------------------------------------------

    Runt...  tusenta...    här...      jag...
G|--2--2--2--2--------------------------------------
D|--------------3--3--3--3--------------------------
A|--------------------------7--7--7--7--0--0--0--0--
E|--------------------------------------------------



Vers 2 (x5)
  Polisen...  skrek...    spottade...  mig          
G|--2--2--2--2--------------------------------------
D|--------------3--3--3--3--------------3--3--3--3--
A|--------------------------7--7--7--7--------------
E|--------------------------------------------------

   var i   förrgår när... väntade på   dig
G|--2--2--2--2--------------------------------------
D|--------------3--3--3--3--------------------------
A|--------------------------7--7--7--7--0--0--0--0--
E|--------------------------------------------------



INSTRUMENTAL

G|--5--5--5--5--2--2--2--2--------------2--2--2--2--
D|--------------------------3--3--3--3--------------
A|--------------------------------------------------
E|--------------------------------------------------

G|--2--2--2--2-------------------------------------
D|--------------3--3--3--3-------------------------
A|--------------------------7--7--7--7--0--0--0--0-
E|-------------------------------------------------



VERS 2 (fort.) (x2)
  såg dig...  höstas...    tror jag... med          
G|--2--2--2--2--------------------------------------
D|--------------3--3--3--3--------------3--3--3--3--
A|--------------------------7--7--7--7--------------
E|--------------------------------------------------

 Men jag...  tjugoett...   du...     tjugotre
G|--2--2--2--2--------------------------------------
D|--------------3--3--3--3--------------------------
A|--------------------------7--7--7--7--0--0--0--0--
E|--------------------------------------------------



VERS 3 (x5)
   Vissa...   dikter...   skriker...   LEV         
G|--2--2--2--2--------------------------------------
D|--------------3--3--3--3--------------3--3--3--3--
A|--------------------------7--7--7--7--------------
E|--------------------------------------------------

   Vissa...   sånger men...  jag...    brev
G|--2--2--2--2--------------------------------------
D|--------------3--3--3--3--------------------------
A|--------------------------7--7--7--7--0--0--0--0--
E|--------------------------------------------------



REFRÄNG
   vara ju...  kort och... dit nu...   till....
G|--5-----------2-----------------------2-----------
D|--------------------------3-----------------------
A|--------------------------------------------------
E|--------------------------------------------------

Så ta mig...  värld...    göra som... vill
G|--2-----------------------------------------------
D|--------------3-----------------------------------
A|--------------------------7-----------0-----------
E|--------------------------------------------------



SLUT
   vissa måste bort mens... råd att... till    Och
G|--2-----------------------------------2-----------
D|--------------3-----------------------------------
A|--------------------------7-----------------------
E|--------------------------------------------------

 leva i...   värld...    göra som... vill
G|--------------------------------------------------
D|--3-----------------------3-----------------------
A|--------------7-----------------------0-----------
E|--------------------------------------------------
tabs and chords, guitar tabs, music transcription, music technology, deep learning, music information retrieval, transcribe into tabs & chords, chordify, music renditions, songsterr, reverbnation, tabulature, bollywood chords, ultimate guitar, yousician, guitar lessons, acoustic guitar, electric guitar, guitar tuner, 911 tabs