Guitar Tabs for Kokoro No Rhythm

(/) Slide Up  (\) Slide Down  (h) Hammer On  (p) Pull Off  (b) Bend (r) Release (v) Vibrato (x) Muted

Tabs & Chords
BPM : 125.0
Check Track 2 for Chord Positions 

       F                                C                    Dm             A#                F  
E|-----------------------8--------------0--------4--3--1-----1--1-----------1-----------------1--
B|--------------------------------1-----------------------------------3-----------1-----1--------
G|-----------------------------------------------------------------------------------------------
D|-----3--2--3-----3--------3--------------2-----------------------------------------------------
A|--3--------------------------------------------------------------------------------------------
E|-----------------------------------------------------------------------------------------------

                C                          Dm          A#                      F              
E|--------------0-----------------3--1-----3--------------------------1-----------------------
B|-----1-----------------1--3--------------------1-----1-----1-----1--------------------------
G|-----------------------------------------------------------------------------------0-----0--
D|-----------3-----2--------------------------------------------------------------------------
A|--------------------------------------------------------------------------2--3--------------
E|--------------------------------------------------------------------------------1-----------

             C              Dm             A#                         F                       
E|--------------------------------------------------------------------------------------------
B|--------------------------------------------------------------------------------------------
G|--0--------0--------------0-----0-----------------------------------2--0-----0--0-----------
D|-----3--3--------------------------3-----3--------0--------------------------------3-----3--
A|-----------------3--3--------------------------3--------1-----3-----------------------------
E|--------------------------------------------------------------------------------------------

Guitar Tabs for Kokoro No Rhythm






       F                                C                    Dm             A#                F  
E|-----1--------------------------------0--------------------1--------------1-----------------1--
B|-----1--------------------------------1--------------------3--------------3-----------------1--
G|-----2--------------------------------0--------------------2--------------3-----------------2--
D|-----3--------------------------------2--------------------0--------------3-----------------3--
A|-----3--------------------------------3-----------------------------------1-----------------3--
E|-----1--------------------------------------------------------------------------------------1--

                C                          Dm          A#                      F              
E|--------------0--------------------------1-----------1-----------------------1--------------
B|--------------1--------------------------3-----------3-----------------------1--------------
G|--------------0--------------------------2-----------3-----------------------2--------------
D|--------------2--------------------------0-----------3-----------------------3--------------
A|--------------3--------------------------------------1-----------------------3--------------
E|-----------------------------------------------------------------------------1--------------

             C              Dm             A#                         F                       
E|-----------0--------------1--------------1--------------------------1-----------------------
B|-----------1--------------3--------------3--------------------------1-----------------------
G|-----------0--------------2--------------3--------------------------2-----------------------
D|-----------2--------------0--------------3--------------------------3-----------------------
A|-----------3-----------------------------1--------------------------3-----------------------
E|--------------------------------------------------------------------1-----------------------

tabs and chords, guitar tabs, music transcription, music technology, deep learning, music information retrieval, transcribe into tabs & chords, chordify, music renditions, songsterr, reverbnation, tabulature, bollywood chords, ultimate guitar, yousician, guitar lessons, acoustic guitar, electric guitar, guitar tuner, 911 tabs