Guitar Tabs for Koji Tamaki - Melody

(/) Slide Up  (\) Slide Down  (h) Hammer On  (p) Pull Off  (b) Bend (r) Release (v) Vibrato (x) Muted

Tabs for Song : 


D|--------------3-----------3-----------------------------------------------1-----1-----------------------------
A|--------1-----------1-----1-----------------0-----0-----0-----------0-----------------------------1-----------
F|-----2-----2-----2-----2--------------------------------------------------------------------0-----------0-----
C|--0-----------0-----------0--------------0-----0-----0-----0-----0-----0-----0-----0-----3-----3-----3-----3--
G|--------------------------------------------------------------------------------------0-----------------------	
D|--------------------------------------3-----------------------3-----------------------------------------------

D|--------------------0-----------------------------------------------------------------------------------0--2--
A|--------1-----------1-----------0-----0-----0-----------3-----------3-----------1--3--5-----1-----------------
F|-----0-----0-----2-----2--------------------------------------------------------------------------------------
C|--1-----------0--------------0-----0-----0-----0-----3-----3-----2-----2-----2-----------2-----2-----4--------
G|--------------------------------------------------------------------------0-----0--2--3-----------2-----------
D|--------------------------3-----------------------1-----------0-----------------------------------------------

D|--------------------0-----0-----0-----------0-----0-----0-----------------------------------------0-----0-----
A|--4-----------------1-----1-----1-----------1-----1-----1-----------0-----0-----0-----------0-----------------
F|-----------------0-----0-----0-----0--2--2-----2-----2-----2-----------------------------------------0-----0--
C|--------------------------------------0--------------------------0-----0-----0-----0-----3-----3--------------
G|--------------0-----------------------------------------------------------------------------------------------
D|--------------------------------------------------------------3-----------------------3-----------------------

D|--0-----------2-----------3-----2-----0-----------------------------0-----------------------------0-----------
A|-----------1--------3-----------------------0-----------1-----------1-----------0-----0--1--3-----------------
F|--------0--------2-----2--2--0-----0-----0-----0-----------0-----2-----2--------------------------------------
C|-----2--------0--------------------------------------2--------0--------------0-----0--------------2-----------
G|--3-----------------------------------------------0--------------------------------------0--2-----3-----------
D|--------------------------------------------------------------------------3-----------3-----------------------

D|--------------------------0-----------------------------------------0-----0-----0-----------------------------
A|--4-----------0-----0-----------------1-----------------1-----------1-----1-----1-----1--------0--------------
F|-----------------0-----0--------------------0-----0--------------2-----2-----2-----2--------------------------
C|--4-----------2-----0--------------------2-----2-----2-----2--0-----------------------------------------------
G|--2-----------------------4-----------0-----------------0-----------------------------------------------------
D|--------------------------------------------------------------------------------------3--------3--------------

D|-----------------------------------------------1-----1-----1-----------------------------
A|-----------------------0-----0-----0-----------------------------------------1-----------
F|-----------------------------------------------------------------------0-----------0-----
C|--------------------0-----0-----0-----0-----0-----0-----0-----0-----2-----2-----2-----2--
G|-----------------------------------------------------------------0-----------------------
D|-----------------3-----------------------3-----------------------------------------------


Song lyrics here
D|--
A|--
F|--
C|--
G|--
D|--

Paste any tab in acousterr's tab maker and we'll play it !!!
Now supports capo and sound effects for vibrato/pull-off/hammer/bends/mutes etc !!! Checkout help section
tabs and chords, guitar tabs, music transcription, music technology, deep learning, music information retrieval, transcribe into tabs & chords, chordify, music renditions, songsterr, reverbnation, tabulature, bollywood chords, ultimate guitar, yousician, guitar lessons, acoustic guitar, electric guitar, guitar tuner, 911 tabs