Guitar Tabs for Koi Mil Gaya - Kkhh

Mujhko kya hua hai
Kyun mai kho gaya hu
E|-----------------------------------------------------------------
B|--------5-----------------------------5--5-----------------------
G|---4/6--------4-----4---6/7------4/6-----------4------4/6--------
D|-----------------7--------------------------------7--------5-----
A|-----------------------------------------------------------------
E|-----------------------------------------------------------------

Pagal tha mai pehle ya ab ho gaya hu
E|-----------------------------------------------------------------
B|--------5-----------------------------5--5-----------------------
G|---4/6--------4-----4---6/7------4/6-----------4------4/6--------
D|-----------------7--------------------------------7--------5-----
A|-----------------------------------------------------------------
E|-----------------------------------------------------------------

Behki hai nigahe aur bikhare hai baal
E|---5/7--7--7--9--9--10-10-9--9--7--7--9--7-----
B|-----------------------------------------------
G|-----------------------------------------------
D|-----------------------------------------------
A|-----------------------------------------------
E|-----------------------------------------------

Tumne banaya hai kya apna ye haal
E|--------------9--9--10-10-12----12-10-10-9---9\5--
B|--10/12-12-12-------------------------------------
G|--------------------------------------------------
D|--------------------------------------------------
A|--------------------------------------------------
E|--------------------------------------------------

Koi mil gaya
Mera dil gaya
E|--5--7---7/9--5--5--------------------------7--9---9/10-7--7-----------------------
B|-----------------------------------------------------------------------------------
G|-----------------------2--4---4/6--2--2--------------------------4--6---6/7--4--4--
D|-----------------------------------------------------------------------------------
A|-----------------------------------------------------------------------------------
E|-----------------------------------------------------------------------------------

Kya batau yaaro
Mai to hil gaya
E|--5--7---7/9--5--5--------------------------7--9---9/10-7--7-----------------------
B|-----------------------------------------------------------------------------------
G|-----------------------2--4---4/6--2--2--------------------------4--6---6/7--4--4--
D|-----------------------------------------------------------------------------------
A|-----------------------------------------------------------------------------------
E|-----------------------------------------------------------------------------------

Koi mil gaya mil hi gaya
Mil gaya
E|--7--8--7-----------------------------------------12/14-14-12----
B|--------------10-7-----10/14----14/15-14-12-10-------------------
G|-----------------------------------------------------------------
D|-----------------------------------------------------------------
A|-----------------------------------------------------------------
E|-----------------------------------------------------------------

Aey mil hi gaya
Mil gaya
E|-----------------------------12/14-14-12----
B|--14/15----15----14-12-10-------------------
G|--------------------------------------------
D|--------------------------------------------
A|--------------------------------------------
E|--------------------------------------------

Jane kya ho gaya hai mujhe
Diwana log kehne lage
E|--------------------------------------------------------------------------------------------------------
B|---3/5-----5--3--3-----2-----3--------2--3---3/5------3/5-----5--3--3-----2-----3--------2--3---3/5-----
G|--------------------------------4--------------------------------------------------4--------------------
D|--------------------------------------------------------------------------------------------------------
A|--------------------------------------------------------------------------------------------------------
E|--------------------------------------------------------------------------------------------------------

Ye diwangi hai kya hame bhi to ho pata
E|---9/10-9--9--------------------10-9--9--------------
B|--------------10-10-8---8/10-------------10-10-8--8--
G|-----------------------------------------------------
D|-----------------------------------------------------
A|-----------------------------------------------------
E|-----------------------------------------------------

Tumko kya ho gaya
E|-----------------12-10-10/12----
B|---8/10-10-10-------------------
G|--------------------------------
D|--------------------------------
A|--------------------------------
E|--------------------------------

Are kal tak mujhko sabh hosh tha
Dil me khushiyo ka josh tha
E|--------------------------------------------------------------------------------------------------------
B|---3/5-----5--3--3-----2-----3--------2--3---3/5------3/5-----5--3--3-----2-----3--------2--3---3/5-----
G|--------------------------------4--------------------------------------------------4--------------------
D|--------------------------------------------------------------------------------------------------------
A|--------------------------------------------------------------------------------------------------------
E|--------------------------------------------------------------------------------------------------------

Phir ye baichain hai kyu
Phir ye betabi hai kyun
E|---9/10-9--9--------------------10-9--9--------------
B|--------------10-10-8---8/10-------------10-10-8--8--
G|-----------------------------------------------------
D|-----------------------------------------------------
A|-----------------------------------------------------
E|-----------------------------------------------------

Kya koi kho gaya
E|-----------------12-10-10/12-10h12p10-9--
B|---8/10-10-10----------------------------
G|-----------------------------------------
D|-----------------------------------------
A|-----------------------------------------
E|-----------------------------------------
tabs and chords, guitar tabs, music transcription, music technology, deep learning, music information retrieval, transcribe into tabs & chords, chordify, music renditions, songsterr, reverbnation, tabulature, bollywood chords, ultimate guitar, yousician, guitar lessons, acoustic guitar, electric guitar, guitar tuner, 911 tabs