Guitar Tabs for I'm Not The Only One ~sam Smith

(/) Slide Up  (\) Slide Down  (h) Hammer On  (p) Pull Off  (b) Bend (r) Release (v) Vibrato (x) slap

Tabs for Song (capo on 5th fret) 

VERSE/CHORUS x8
E|--------------------------------x-----x-----x--x-----------------------------------x-----x-----x--x-----------------------------------x-----x-----x--x--------------3--3--------x-----x--x--
B|--1-----1--1--------------1-----x--1--x-----x--x-----1-----1--1--------------1-----x--1--x-----x--x-----1-----1--1--------------1-----x--1--x-----x--x-----1--1--1-----------1--x-----x--x--
G|--------------1--1--1-----2-----x--2--x-----x--x-----------------1--1--1-----2-----x--2--x-----x--x-----------------1--1--1-----2-----x--2--x-----x--x--------------------------x-----x--x--
D|--2-----2--2--2--2--2-----2-----x--3--x-----x--x-----2-----2--2--2--2--2-----2-----x--3--x-----x--x-----2-----2--2--2--2--2-----2-----x--3--x-----x--x-----2--2--2-----------2--x-----x--x--
A|--3-----3--3--2--2--2-----------x--3--x-----x--x-----3-----3--3--2--2--2-----------x--3--x-----x--x-----3-----3--3--2--2--2-----------x--3--x-----x--x-----3--3--3--2--2-----3--x-----x--x--
E|--------------------------------x-----x-----x--x-----------------------------------x-----x-----x--x-----------------------------------x-----x-----x--x--------------3--3--------x-----x--x--

E|--
B|--
G|--
D|--
A|--
E|--

E|--
B|--
G|--
D|--
A|--
E|--

BRIDGE:
E|--3--3--3--3--3--3--3--3--
B|--------------------------
G|--------------------------
D|--------------------------
A|--2--2--2--2--2--2--2--2--
E|--3--3--3--3--3--3--3--3--

Repeat VERSE/CHORUS x3
tabs and chords, guitar tabs, music contests, music covers, songsterr, reverbnation, renditions, tabulature, bollywood chords, ultimate guitar, yousician, guitar lessons, torrins, fender, gibson, acoustic guitar, electric guitar, youtube covers, gootar, guitar tuner, A-Z tabs, 911 tabs