Guitar Tabs for Knopfler

(/) Slide Up  (\) Slide Down  (h) Hammer On  (p) Pull Off  (b) Bend (r) Release (v) Vibrato (x) Muted

Tabs for Song : 

Song lyrics here
E|--------10-------------------------------------------------8-----------8-----------8-----------8--
B|-----10----13p10----10----------------------10----------------10p8--------10p8--------10p8--------
G|---3b------------12----12p10----10-------10----12v------------------9-----------9-----------9-----
D|-----------------------------12----10h12----------------------------------------------------------
A|--------------------------------------------------------------------------------------------------
E|--------------------------------------------------------------------------------------------------

E|-----------------------------------
B|-----6--------13b---13-13----13-13-
G|-----7--------12b---10-12----10-10-
D|-----7-----------------------------
A|--5--------------------------------
E|-----------------------------------





Song lyrics here
E|--
B|--
G|--
D|--
A|--
E|--

Paste any tab in acousterr's tab maker and we'll play it !!!
Now supports capo and sound effects for vibrato/pull-off/hammer/bends/mutes etc !!! Checkout help section
tabs and chords, guitar tabs, music transcription, music technology, deep learning, music information retrieval, transcribe into tabs & chords, chordify, music renditions, songsterr, reverbnation, tabulature, bollywood chords, ultimate guitar, yousician, guitar lessons, acoustic guitar, electric guitar, guitar tuner, 911 tabs