Guitar Tabs for Kisi Roz Tumse Mulaakat Hogi - Pardes Tabs

(/) Slide Up  (\) Slide Down  (h) Hammer On  (p) Pull Off  (b) Bend (r) Release (v) Vibrato (x) Muted

Tabs for Song : Kisi Roz Tumse Mulaakat Hogi

Kisi Roz Tumse Mulaakat Hogi
E|--------------------------------------
B|-----10-13-12-10-12----9--12-10-9--10-
G|--9-----------------9-----------------
D|--------------------------------------
A|--------------------------------------
E|--------------------------------------

Meri Jaan Us Din Mere Saath Hogi
E|--------------------------------------
B|-----10-13-12-10-12----9--12-10-9--10-
G|--9-----------------9-----------------
D|--------------------------------------
A|--------------------------------------
E|--------------------------------------

Magar Kab Na Jaane Ye Barsaat Hogi
E|--------12-10-9--10-------12-10-9--10-
B|--10-13-------------10-13-------------
G|--------------------------------------
D|--------------------------------------
A|--------------------------------------
E|--------------------------------------

Mera Dil Hai Pyaasa Mera Dil Akela
E|--12-10-------------10----------------
B|--------13-12-12-13----13-12-10-10-12-
G|--------------------------------------
D|--------------------------------------
A|--------------------------------------
E|--------------------------------------

Zara Tasveer Se Tu Nikalke Saamne Aa Meri Mehbooba
E|-----------------------------------------------------------
B|-----10-12-13-12-10-12----10-12-13-12-10-12-9--9--9--12-10-
G|--9--------------------9-----------------------------------
D|-----------------------------------------------------------
A|-----------------------------------------------------------
E|-----------------------------------------------------------

Meri Taqdeer Hai Tu Machalke Saamne Aa Meri Mehbooba
E|-----------------------------------------------------------
B|-----10-12-13-12-10-12----10-12-13-12-10-12-9--9--9--12-10-
G|--9--------------------9-----------------------------------
D|-----------------------------------------------------------
A|-----------------------------------------------------------
E|-----------------------------------------------------------

Meri Mehbooba Meri Mehbooba Meri Mehbooba
E|--12-12-10----12-10-10-10-------10----------------------
B|-----------13-------------13-12----13-13-13-12-10-13-12-
G|--------------------------------------------------------
D|--------------------------------------------------------
A|--------------------------------------------------------
E|--------------------------------------------------------

Meri Mehbooba Meri Mehbooba 
E|-----------------------------------------
B|--9--9--12-10-12-10-10-12-9--9--9--12-10-
G|-----------------------------------------
D|-----------------------------------------
A|-----------------------------------------
E|-----------------------------------------
tabs and chords, guitar tabs, music transcription, music technology, deep learning, music information retrieval, transcribe into tabs & chords, chordify, music renditions, songsterr, reverbnation, tabulature, bollywood chords, ultimate guitar, yousician, guitar lessons, acoustic guitar, electric guitar, guitar tuner, 911 tabs