Guitar Tabs for Kisah Antara Kita

(/) Slide Up  (\) Slide Down  (h) Hammer On  (p) Pull Off  (b) Bend (r) Release (v) Vibrato (x) Muted

Tabs for Song : 

Song lyrics here
E|--------------------------------------------------6--8--6-----------------------
B|---9\11----9--8---8h9--8-----------------6--8--9-----------9--8--6---6\8--------
G|--------------------------8--8-----7--8-----------------------------------------
D|--------------------------------------------------------------------------------
A|--------------------------------------------------------------------------------
E|--------------------------------------------------------------------------------

E|--13b13----11----13-15-8--10-11-6-----------------------------------------------------------------
B|-----------------------------------------9--8--9-----8--------------------------------------------
G|--------------------------------------------------------10-8-----------10----8-----8---------3\8--
D|--------------------------------------------------------------8--------8-----6-----6--------------
A|-----------------------------------------------------------------------8-----6-----6--------------
E|--------------------------------------------------------------------------------------------------

E|--
B|--
G|--
D|--
A|--
E|--

E|--
B|--
G|--
D|--
A|--
E|--

E|--
B|--
G|--
D|--
A|--
E|--

Song lyrics here
E|--
B|--
G|--
D|--
A|--
E|--

Paste any tab in acousterr's tab maker and we'll play it !!!
Now supports capo and sound effects for vibrato/pull-off/hammer/bends/mutes etc !!! Checkout help section
tabs and chords, guitar tabs, music transcription, music technology, deep learning, music information retrieval, transcribe into tabs & chords, chordify, music renditions, songsterr, reverbnation, tabulature, bollywood chords, ultimate guitar, yousician, guitar lessons, acoustic guitar, electric guitar, guitar tuner, 911 tabs