Guitar Tabs for Kingdom

(/) Slide Up  (\) Slide Down  (h) Hammer On  (p) Pull Off  (b) Bend (r) Release (v) Vibrato (x) Muted

Tabs for Song : 
BPM : 200

Song lyrics here 
E|--------------------------------------------------------------------------------------------------------------------------------------------------------------------------------
B|-----------------------------------------------------------------------------------------------------------------------------------------------------------------------------
G|-----------------------------------------------------------------------------------------------------------------------------------------------------------------------------
D|-----------------------------------------------------------------------------------------------------------------------------------------------------------------------------
A|-----------3--------------------5--------------------7--------------7--------7--------------------3--------------------5--------------------7--------------7--------7--------
D|--3--------------3-----5--------------5-----7--------------7-----7--------7--------7-----3--------------3-----5--------------5-----7--------------7-----7--------7--------7--

Song lyrics here 

E|-----------------------------------------------------------------------------------------------------------------------------------------------------------------------------
B|-----------------------------------------------------------------------------------------------------------------------------------------------------------------------------
G|-----------------------------------------------------------------------------------------------------------------------------------------------------------------------------
D|-----------------------------------------------------------------------------------------------------------------------------------------------------------------------------
A|--3-----3--3-----3-----5-----5--5-----5-----7-----7--7-----7-----7--7-----7--7-----7-----3-----3--3-----3-----5-----5--5-----5-----7-----7--7-----7-----7--7-----7--7-----7--
D|--3-----3--3-----3-----5-----5--5-----5-----7-----7--7-----7-----7--7-----7--7-----7-----3-----3--3-----3-----5-----5--5-----5-----7-----7--7-----7-----7--7-----7--7-----7--

    
E|-----------------------------------------------------------------------------------------------------------------------------------------------------------------------------
B|-----------------------------------------------------------------------------------------------------------------------------------------------------------------------------
G|-----------------------------------------------------------------------------------------------------------------------------------------------------------------------------
D|-----------------------------------------------------------------------------------------------------------------------------------------------------------------------------
A|--3-----3--3-----3-----5-----5--5-----5-----7-----7--7-----7-----7--7-----7--7-----7-----3-----3--3-----3-----5-----5--5-----5-----7-----7--7-----7-----7--7-----7--7-----7--
D|--3-----3--3-----3-----5-----5--5-----5-----7-----7--7-----7-----7--7-----7--7-----7-----3-----3--3-----3-----5-----5--5-----5-----7-----7--7-----7-----7--7-----7--7-----7--

   
   

Bass Tabs for Kingdom






G|-----------------------------------------------------------------------------------------------------------------------------------------------------------------------------
D|-----------------------------------------------------------------------------------------------------------------------------------------------------------------------------
A|-----------3--------------------5--------------------7--------------7--------7--------------------3--------------------5--------------------7--------------7--------7--------
D|--3--------------3-----5--------------5-----7--------------7-----7--------7--------7-----3--------------3-----5--------------5-----7--------------7-----7--------7--------7--





G|-----------------------------------------------------------------------------------------------------------------------------------------------------------------------------
D|-----------------------------------------------------------------------------------------------------------------------------------------------------------------------------
A|-----------------------------------------------------------------------------------------------------------------------------------------------------------------------------
D|--3-----3--3-----3-----5-----5--5-----5-----7-----7--7-----7-----7--7-----7--7-----7-----3-----3--3-----3-----5-----5--5-----5-----7-----7--7-----7-----7--7-----7--7-----7--




G|-----------------------------------------------------------------------------------------------------------------------------------------------------------------------------
D|-----------------------------------------------------------------------------------------------------------------------------------------------------------------------------
A|-----------------------------------------------------------------------------------------------------------------------------------------------------------------------------
D|--3-----3--3-----3-----5-----5--5-----5-----7-----7--7-----7-----7--7-----7--7-----7-----3-----3--3-----3-----5-----5--5-----5-----7-----7--7-----7-----7--7-----7--7-----7--

Guitar Tabs for Kingdom






E|-----------------------------------------------------------------------------------------------------------------------------------------------------------------------------
B|-----------------------------------------------------------------------------------------------------------------------------------------------------------------------------
G|-----------5--------------------7--------------------9--------------9--------9--------------------5--------------------7--------------------9--------------9--------9--------
D|--3--------------3-----5--------------5-----7--------------7-----7--------7--------7-----3--------------3-----5--------------5-----7--------------7-----7--------7--------7--
A|-----------------------------------------------------------------------------------------------------------------------------------------------------------------------------
D|-----------------------------------------------------------------------------------------------------------------------------------------------------------------------------



E|-----------------------------------------------------------------------------------------------------------------------------------------------------------------------------
B|-----------------------------------------------------------------------------------------------------------------------------------------------------------------------------
G|--5-----5--5-----5-----7-----7--7-----7-----9-----9--9-----9-----9--9-----9--9-----9-----5-----5--5-----5-----7-----7--7-----7-----9-----9--9-----9-----9--9-----9--9-----9--
D|--3-----3--3-----3-----5-----5--5-----5-----7-----7--7-----7-----7--7-----7--7-----7-----3-----3--3-----3-----5-----5--5-----5-----7-----7--7-----7-----7--7-----7--7-----7--
A|-----------------------------------------------------------------------------------------------------------------------------------------------------------------------------
D|-----------------------------------------------------------------------------------------------------------------------------------------------------------------------------


E|-------------------------------------------------------------------------------------------------------------------------------------------------------------------------------
B|-----------------------------------------------------------------------------------------------------------------------------------------------------------------------------
G|--5-----5--5-----5-----7-----7--7-----7-----9-----9--9-----9-----9--9-----9--9-----9-----5-----5--5-----5-----7-----7--7-----7-----9-----9--9-----9-----9--9-----9--9-----9--
D|--3-----3--3-----3-----5-----5--5-----5-----7-----7--7-----7-----7--7-----7--7-----7-----3-----3--3-----3-----5-----5--5-----5-----7-----7--7-----7-----7--7-----7--7-----7--
A|-----------------------------------------------------------------------------------------------------------------------------------------------------------------------------
D|-----------------------------------------------------------------------------------------------------------------------------------------------------------------------------

B|--
G|--
D|--
A|--
D|--

tabs and chords, guitar tabs, music transcription, music technology, deep learning, music information retrieval, transcribe into tabs & chords, chordify, music renditions, songsterr, reverbnation, tabulature, bollywood chords, ultimate guitar, yousician, guitar lessons, acoustic guitar, electric guitar, guitar tuner, 911 tabs