Kidsmoke- Take Me To The River - Bass Tabs

(/) Slide Up  (\) Slide Down  (h) Hammer On  (p) Pull Off  (b) Bend (r) Release (v) Vibrato (x) Muted

Tabs for Song : 
BPM : 147

main riff, add flourishes and such to your liking. repeat until the bridge.
G|-----------------------------------------------------------------------------------------------------------------------------------------------------------------------------------
D|--4-----4-----4--7--4-----------------7-----7--7-----7--7--------------------------------------------------------------------------------------------------------------------------
A|--------------------------7-----7-----------------------------5-----5--5-----5--5--4--5-----5--5-----5--5-----7-----7--7-----7--7-----4--4--4-----7--7--7-----5-----5--5-----5--5--
E|-----------------------------------------------------------------------------------------------------------------------------------------------------------------------------------
B|-----------------------------------------------------------------------------------------------------------------------------------------------------------------------------------

 bridge part.
G|--------------------------------------------------------------------------------------------------
D|--------------------------------------------------------------------------------------------------
A|--------------------------------------------------------------------------------------------------
E|--7--7--7--7--7--7--7--7--7--7--7--7--7--7--7--7--7--7--7--7--7--7--7--7--7--7--7--7--7--7---7/12-
B|--------------------------------------------------------------------------------------------------

 Chorus.
G|-----------------------------------------------------------------------------------------------------------------------------------------------
D|-----------------------------------------------------------------------------------------------------------------------------------------------
A|--12-12-12-12-12-12-12-12/14-14-14-14-14-14-14-14-------------------------------------------------5--5--5--5--5--5---5/14-14-14-14-14-14-14-14-
E|--------------------------------------------------10-10-10-10-10-10-10\7-----7--7-----7--7--7--7-----------------------------------------------
B|-----------------------------------------------------------------------------------------------------------------------------------------------

After that, repeat the main riff and the bridge. play half of the second chorus,
then this is played twice, but do not play the first not the second time. 
(Hold each note until you play the next one.)
G|-----------------------------------------------------------------------------------------
D|-----------------------------------------------------------------------------------------
A|--12----------------------------------------------12----------9-----------10----------5--
E|-----------------------------------------------------------------------------------------
B|-----------------------------------------------------------------------------------------

Finally, finish the piece off with the main riff, and then a chorus (NO BRIDGE). 
end on the 7 on the E string, and hold until the song is over.
tabs and chords, guitar tabs, music transcription, music technology, deep learning, music information retrieval, transcribe into tabs & chords, chordify, music renditions, songsterr, reverbnation, tabulature, bollywood chords, ultimate guitar, yousician, guitar lessons, acoustic guitar, electric guitar, guitar tuner, 911 tabs